Let It Burn - Heres To Goodbyes Chords & Tabs

 

Heres To Goodbyes Chords & Tabs

Let It Burn Chords & Tabs

Version: 1 Type: Tab 0 ratings
1 star 2 stars 3 stars 4 stars 5 stars
comments

Heres To Goodbyes Tab

   
------------------------------------------------------------------------------- 
                        Let It Burn - Here's To Goodbye's
------------------------------------------------------------------------------- 
By: Steve karpsmom@att.net 

http://www.angelfire.com/punk3/punktabs0 
_ -palm mute 
* - harmonics 
/ - slide 
> - continued 
v - vibrato 

no chords are exact number of strums 

Gtr. A intro 
e|------part 1-------|-part 2------------------------------------------------| 
B|-------------------|-------------------------------------------------------| 
G|-9-7----7-9-7-9-12-|-------------------------------------------------------| 
D|-9-7-7*-7-9-7-9-12-|-----------------5-------------------------------------| 
A|-7-5-5*-5-7-5-7-10-|-7-7-5/2-5-7-5-7---------------------------------------| 
E|-------------------|-------------------------------------------------------| 

Gtr. B 
e|------part 1-------|-part 2-----------------------------------------------| 
B|-------------------|------------------------------------------------------| 
G|-9-7----7-9-7-9-12-|------------------------------------------------------| 
D|-9-7-7*-7-9-7-9-12-|------------------------------------------------------| 
A|-7-5-5*-5-7-5-7-10-|------------------------------------------------------| 
E|-------------------|------------------------------------------------------| 


Gtr. A verse 
e|------part 1-------|-part 2---------|---|--part 3----------|-part4---------> 
B|-------------------|----------------|---|------------------|---------------> 
G|-9-7----7-9-7-9-12-|-9-7-7-9-7-9-12-|-7-|-7---9----12------|-----------5---> 
D|-9-7-7*-7-9-7-9-12-|-9-7-7-9-7-9-12-|-7-|-7-7-9-10-12-12-5-|-7-9-5-7-3-5-5-> 
A|-7-5-5*-5-7-5-7-10-|-7-5-5-7-5-7-10-|-5-|-5-7-7-10-10-12-5-|-7-9-5-7-3-3-5-> 
E|-------------------|----------------|-5-|---5----8----10-3-|-5-7-3-5-1---3-> 

[ Tab from: http://www.guitartabs.cc/tabs/l/let_it_burn/heres_to_goodbyes_tab.html ]
>-part-4 cont-|-then do part 3 and 4 again-| 
>-------------|----------------------------| 
>-------7-9---|----------------------------| 
>-7-9-5-7-9---|----------------------------| 
>-7-9-5-5-7---|----------------------------| 
>-5-7-3-------|----------------------------| 

Gtr. B Verse 
e|------part 1-------|-part 2---------|-------|--part 3----------|-part4---------> 
B|-------------------|----------------|---7---|------------------|---------------> 
G|-9-7----7-9-7-9-12-|-9-7-7-9-7-9-12-|-7-7---|-7---9----12------|-----------5---> 
D|-9-7-7*-7-9-7-9-12-|-9-7-7-9-7-9-12-|-7-7-7-|-7-7-9-10-12-12-5-|-7-9-5-7-3-5-5-> 
A|-7-5-5*-5-7-5-7-10-|-7-5-5-7-5-7-10-|-5-5-7-|-5-7-7-10-10-12-5-|-7-9-5-7-3-3-5-> 
E|-------------------|----------------|-----5-|---5----8----10-3-|-5-7-3-5-1---3-> 

>-part-4 cont-|-then do part 3 and 4 again-| 
>-----------7-|----------------------------| 
>-------7-9---|----------------------------| 
>-7-9-5-7-9---|----------------------------| 
>-7-9-5-5-7---|----------------------------| 
>-5-7-3-------|----------------------------| 

Gtr. A breakdown 
e|-part 1----------------------------|-part-2-------------------------------------| 
B|-----------------------------------|---------------_-------------------__-------| 
G|----12---------12------------------|---_-----_---7-7-7---_------__--12-12-12----| 
D|-10-12-12-7-10-12-12---------------|-9-9-9-5-5-5-7-7-7-7-7-9/10-10--12-12-12-12-| 
A|-10-10-12-7-10-10-12-12*-14/12-12*-|-9-9-9-5-5-5-5-5-5-7-7-9/10-10--10-10-10-12-| 
E|--8----10-5--8----10-10*-12/10-10*-|-7-7-7-3-3-3-------5-5-7/-8--8-----------10-| 

then do breakdown part 1 again, then pickslide then go into verse part 3 

Gtr. B 
e|-part 1 about X2 clean-----------|-part 2--about 7X-------|------------------| 
B|---------------------------------|------------------------|------------------| 
G|---7---7---7---7---7---7---7---7-|----------------------7-|------------------| 
D|-7---7---7---7---7---7---7---7---|-10910910910910910910---|-10v--------------| 
A|---------------------------------|------------------------|------------------| 
E|---------------------------------|------------------------|------------------| 

then do verse part 3 

Gtr. B ends on this chord 
e|----| 
B|----| 
G|-12-| 
D|-12-| 
A|-10-| 
E|----|
Comments