Less Than Jake - Time And A Half Chords & Tabs

 

Time And A Half Chords & Tabs

Less Than Jake Chords & Tabs

Version: 1 Type: Bass Tab 0 ratings
1 star 2 stars 3 stars 4 stars 5 stars
comments

Time And A Half Bass Tab

Song: Time and a Half
Band: Less Than Jake
Album: Losers, Kings, and Things We Don't Understand
tabbed by: Adam Marish

Ok, I saw the other version for this tab but I think this is the
actual way to play it.

Intro (2x)

G:-----------------------------------|-----------------------------------
D:---------5-3-2------2-3-5----4-5-7-|---------5-3-2---------------------
A:---2-3-5-------5--3--------5-------|---2-3-5-------5--3333--55-33------
E:-3---------------------------------|-3---------------------------------

Verse

G:-------------------------------|---------------------------------------
D:---------5-3-5-----2-------7---|---------5-3-5-----2-------------------
A:---2-------------3---3---5---5-|---2-------------3---3---5-3-5---------
E:-3---3-------------------------|-3---3---------------------------------


G:-------------------------------|---------------------------------------
D:---------5-3-5-----2-------7---|---------------------------------------
A:---2-------------3---3---5---5-|---2-------2-----3333-5-3-2------------
E:-3---3-------------------------|-3---3---3---3--------------5----------

Verse with Horn Riff (almost same as intro)
[ Tab from: http://www.guitartabs.cc/tabs/l/less_than_jake/time_and_a_half_btab.html ]
G:-----------------------------------|-----------------------------------
D:---------5-3-2------2-3-5----4-5-7-|---------5-3-2---------------------
A:---2-3-5-------5--3--------5-------|---2-3-5-------5--3333-55-33-------
E:-3---------------------------------|-3---------------------------------


Bridge...(It's Just The Same Old Story...On The Same Old Street)

G:-----------------------------------------------------------------------
D:---2-3-4-5-4-3-2--------------------2-3-4-5-4-3-2----------------------
A:-3-----------------2-3-4-5-4-3-2--3-----------------2-3-4-5-4-3-2------
E:-----------------3--------------------------------3--------------------

Then Play This Riff

G:---------------
D:----7----------
A:-55---5-3------
E:---------------

Then it's the same thing as the intro yet again, only with a little
variation here and there...

G:------------------------------------------------------
D:---------5-3-2---------------------5-3-2--------------
A:---2-3-5-------5-3-(hold)----2-3-5-------3-5-(hold)---
E:-3-------------------------3--------------------------

Then just play the intro riff once...
Verse


Well that's the song...just play it, you'll hear it.  Pretty cool bass parts
and they're pretty easy.  Peace!

Adam
The Royal Noise Brigade - Pennsylvania Ska!!!!
http://members.tripod.com/royalnoisebrigade

Comments