Less Than Jake - Teenager In Love Chords & Tabs

 

Teenager In Love Chords & Tabs

Less Than Jake Chords & Tabs

Version: 1 Type: Chords 0 ratings
1 star 2 stars 3 stars 4 stars 5 stars
comments

Teenager In Love Chords

   
I havn't seen any tabs for this song...let alone many ltj tabs so heres one of
their old best songs! if you can get someone who can play the bass to this song
aswell, it will sound sweet because my band did it in practice and are doing it
at some gigs we're doing...the bass notes for this song are amazing! anyway...have fun!


Intro:

   Eb  Cm  Ab  Bb   Eb5 C5  Ab5 Bb5
|--6---3---4---6-----------------------------------
|--8---4---4---6-----------------------------------
|--8---5---5---7----8---5---6---8------------------
|--8---5---6---8----8---5---6---8------------------
|--6---3---6---8----6---3---4---6------------------
|------3---4---6-----------------------------------
[ Tab from: http://www.guitartabs.cc/tabs/l/less_than_jake/teenager_in_love_crd.html ]
if you can't play the intro, well i've adapted it so that its just simple power chords:

Intro (adapted): CLEAN (strumming not shown)
|---------------------------------
|---------------------------------
|---8--5-----3--------------------
|---8--5--6--3--------------------
|---6--3--6--1--------------------
|---------4-----------------------

Intro: Eb Cm Ab Bb (clean) 

Verse: Eb5 C5 Ab5 Bb5 (distorted) (each time we have a quarrel.../one day i feel so happy...)

Chorus: Eb5 C5 Ab5 Bb5 (distorted) (each night i ask the stars up above,
why must I be a teenager in love?)

Bridge: Ab5 Bb5 (distorted) (I cry a tear, for nobody but you...)

great song go to www.lessthanjake.com they RULE!!!
any fan mail email me: tomato_fase@hotmail.com

if you dont know the lyrics to this song, go to www.letssingit.com they have it.
Comments