Less Than Jake - Son Of A Dick Chords & Tabs

 

Son Of A Dick Chords & Tabs

Less Than Jake Chords & Tabs

Version: 2 Type: Bass Tab 0 ratings
1 star 2 stars 3 stars 4 stars 5 stars
comments

Son Of A Dick Bass Tab

Less Than Jake
Son of a dick
Pez Collection
tabbed by Bazz / billiejoe2000@hotmail.com
member of the bass tab archive tabbing army
if you want a tab just email me, i'll see what i can do

* - mute
h - hammer on
p - pull off

verse 1
G:--------------------------------------------------------/
D:-------------------------------------------9-7-6--------/
A:-------77----9-9-----77----9-9h11p9--77----------77-7---/
E:-7--------99-----77-----99---------7----99--------------/

verse 2
G:------------------------------------------------:-------/
D:------------------------------------------------:-------/
A:-77----9-9----77----9-9h11p9---77----9-9h11p9-7-:77-6-4-/
E:----99-----77----99----------7----99-----------7:-------/

G:  At the end of the 2nd verse            :--------------/
D:  where i have put the :, you            :--------------/
A:  get a part which changes the next time :-7--7--77-6-4-/
E:  you play it, to this                   :--------------/

[ Tab from: http://www.guitartabs.cc/tabs/l/less_than_jake/son_of_a_dick_btab_ver_2.html ]
Chorus
G:--------------------------------------------:-----------/
D:----------------------------67976-6--*-*-*--:-6-6-5-4-3-/
A:---457---457---457---457--7------7--*-*-7-*-:7-7-6-5-4--/
E:-5-----5-----5-----5------------------------:-----------/

Chorus 2
G:-------------------------------------:------------------/
D:-------------------------------------:------------------/
A:---457---457---457---457---679---679-:-----------6-7----/
E:-5-----5-----5-----5-----7-----7-----:---7-7-77-9-7-----/

on chorus 2 don't play the end bit the 2nd time round
go straight into the outro

Outro
G:--------------------------------------------------------/
D:----------------------69677-66--------------69677-66----/
A:------------4----6---7-----9--7---4----6---7-----9--7---/
E:-0000-000--5-5--7-7--------------5-5--7-7---------------/
cont .....
G:--------------------------------------------------------/
D:-------------69677-66--------------69677-66-------------/
A:--4----9-6--7-----9--7---4----6---7-----9--7-7----------/
E:-5-5--7-----------------5-5--7-7------------------------/

I think that's right, but on the first chorus at the end
where I have put muteing Rog might fret the notes but
I dunno try which one you think is best,
i prefer to use the second idea.
Have fun

Email me if you have any corrections or stuff

Comments