Less Than Jake - Shotgun Chords & Tabs

 

Shotgun Chords & Tabs

Less Than Jake Chords & Tabs

Version: 1 Type: Bass Tab 0 ratings
1 star 2 stars 3 stars 4 stars 5 stars
comments

Shotgun Bass Tab

Song:       Shotgun 
Band:       Less Than Jake 
Album:      Pezcore, Losers King and Things  
Tabbed by:  A Ral  (KingAdam44@aol.com)

I am so sick of seeing the wrong bass tab for the intro to Shotgun.  Here's 
how it really goes.  Try to spread it as much as you can.


[ Tab from: http://www.guitartabs.cc/tabs/l/less_than_jake/shotgun_btab.html ]
G----------------------------------------------------------------
D-17/12--17-17-15-15-14-------------------------------------
A-----------------------17-17-15-15-14-14-15-14-15-14-17-17------------
E----------------------------------------------------------------


G----------------12/17-17-15-15-14-14-12-12--------
D-17-17-15-15-14-----------------------------------
A--------------------------------------------------
E--------------------------------------------------

Comments