Less Than Jake - Shes Gonna Break Soon Chords & Tabs

 

Shes Gonna Break Soon Chords & Tabs

Less Than Jake Chords & Tabs

Version: 2 Type: Tab 0 ratings
1 star 2 stars 3 stars 4 stars 5 stars
comments

Shes Gonna Break Soon Tab

Less Than Jake-Shes Gonna Break Soon

standard tuning
.=palm mute


intro 
|-----------------------------------------------------|
|-----------------------------------------------------|
|-9---9-------7---7-----------------------------------|
|-9-9-9-9-9-9-7-7-7-7-7-7-7---7-----------------------|
|-7-7-7-7-7-7-5-5-5-5-5-5-7-7-7-7-7-7-7-7-7-7-7-7-7-7-|
|-------------------------5-5-5-5-5-5-5-5-5-5-5-5-5-5-|
   .   . . .   .   . . .   .   . . . . . . . . . . .

(let this ring at the end of intro)
|---|
|---|
|---|
|-7-|
|-7-|
|-5-|

verse               (slowly letting off palm mute)
|-------------------------------------------------|
|-------------------------------------------------|
|-7-7-7-7-7-9-9-9-9-9-----------------------------|
|-7-7-7-7-7-9-9-9-9-9-7-7-7-7-7-7-7-7-7-7-7-7-7-7-|
|-5-5-5-5-5-7-7-7-7-7-7-7-7-7-7-7-7-7-7-7-7-7-7-7-|
|---------------------5-5-5-5-5-5-5-5-5-5-5-5-5-5-|
                      . . . . . . . . . .

prechorus
|---------------------------------------------|
|---------------------------------------------|
|------9---------9-------7-7-7-7-7-7-7-7-9--9-|
|-9-9--9-9--9-9--9-9-9-9-7-7-7-7-7-7-7-7-9--9-|
|-9-9--9-9--9-9--9-9-9-9-5-5-5-5-5-5-5-5-7--7-|
|-7-7--7-7--7-7--7-7-7-7----------------------|
[ Tab from: http://www.guitartabs.cc/tabs/l/less_than_jake/shes_gonna_break_soon_tab_ver_2.html ]
chorus (only strum each chord once)    (slowly letting off palm mute)
|----------------------------------------------------------------|
|----------------------------------------------------------------|
|-9~-7~----9~-7~----9~-7~----9~-7~-------------------------------|
|-9~-7~-7~-9~-7~-7~-9~-7~-7~-9~-7~-7-------------7-7-7-7-7-7-7-7-|
|-7~-5~-7~-7~-5~-7~-7~-5~-7~-7~-5~-7-7-7-7-7-7-7-7-7-7-7-7-7-7-7-|
|-------5~-------5~-------5~-------5-5-5-5-5-5-5-5-5-5-5-5-5-5-5-|
                                     . . . . . . . . . . . . . .
interlude 
|-----------------------------------------------------------------
|-----------------------------------------------------------------
|---------------------------------7-7-7-7-7-7-7-7-7-7-7-7-7-7-7-7-
|-7-7-7-7-7-7-7-7-9-9-9-9-9-9-9-9-7-7-7-7-7-7-7-7-7-7-7-7-7-7-7-7-
|-7-7-7-7-7-7-7-7-9-9-9-9-9-9-9-9-5-5-5-5-5-5-5-5-5-5-5-5-5-5-5-5-
|-5-5-5-5-5-5-5-5-7-7-7-7-7-7-7-7---------------------------------

-----------------------------------------------------------------
-----------------------------------------------------------------
---------------------------------7-7-7-7-7-7-7-7-9-9-9-9-9-9-9-9-
-7-7-7-7-7-7-7-7-9-9-9-9-9-9-9-9-7-7-7-7-7-7-7-7-9-9-9-9-9-9-9-9-
-7-7-7-7-7-7-7-7-9-9-9-9-9-9-9-9-5-5-5-5-5-5-5-5-7-7-7-7-7-7-7-7-
-5-5-5-5-5-5-5-5-7-7-7-7-7-7-7-7---------------------------------

(promises you made back home.....)
|-------------------------------------------------------------|
|-------------------------------------------------------------|
|--4--44-4-4-44-4--------------------------------9-99-9-9-99--| 
|--4--44-4-4-44-2--4-44-4-4-44-4--7-77-7-7-77-7--9-99-9-9-99--|
|--2--22-2-2-22-2--4-44-4-4-44-4--7-77-7-7-77-7--7-77-7-7-77--|
|------------------2-22-2-2-22-2--5-55-5-5-55-5---------------|

|---------------------------------|
|---------------------------------|
|--4--44-4-4-44-4-----------------|
|--4--44-4-4-44-4--4-44-4-4-44-4--|
|--2--22-2-2-22-2--4-44-4-4-44-4--|
|------------------2-22-2-2-22-2--|

		      
(slowly let off PM)     "Got the best of, got the best..." 
|----------------------------------------------------|
|----------------------------------------------------|
|----------------------7-7-7-7-7-7-7-7-7-7-7-7-9-9---|
|--5-5555555555555555--7-7-7-7-7-7-7-7-7-7-7-7-9-9---|
|--5-5555555555555555--5-5-5-5-5-5-5-5-5-5-5-5-7-7---|
|--3-3333333333333333--------------------------------|
     ................


Outro

|---------------------------|
|---------------------------|
|--2--------------7---------|
|--2----2----5----7----7----|
|--0----2----5----5----7----|
|-------0----3---------5----|



thats all..you can figure out the order
Comments