Less Than Jake - Robots One Humans Zero Chords & Tabs

 

Robots One Humans Zero Chords & Tabs

Less Than Jake Chords & Tabs

Version: 1 Type: Tab 0 ratings
1 star 2 stars 3 stars 4 stars 5 stars
comments

Robots One Humans Zero Tab

   
ARTIST: Less Than Jake
ALBUM: B Is For B-Sides
SONG: Robots One, Humans Zero
TUNING: EADGBe (Standard)
TABBED BY: Jay (rockin82@adelphia.net)

This is my first attempt at tabbing a song by ear, so go easy on the hate mail! ;)
Any help would be GREATLY appreciated. Please e-mail me with corrections, additions, etc.


TAB Key:
d - Downstroke
u - Upstroke
p - Pull-off
x - Dead Note
. - (Under Note) Palm Mute



-- Intro/Chorus -- (w/Distortion)
 
 e:|--------------------------------------------------|
 B:|--------------------------------------------------|
 G:|--------------------------------------------------|
 D:|--------2-22--9-99-9999--11-11--9-7-77-7777-------|
 A:|--------2-22--9-99-9999--11-11--9-7-77-7777-------|
 E:|--3p2p0-0-00--7-77-7777--9--9---7-5-55-5555-------|
      d     d ud  d ud dudu  d  d   d d ud dudu

 e:|--------------------------------------------------|
 B:|--------------------------------------------------|
 G:|--------------------------------------------------|
 D:|--------2-22--9-99-9999--11-11--9-7-77-7777-------|
 A:|--------2-22--9-99-9999--11-11--9-7-77-7777-------|
 E:|--3p2p0-0-00--7-77-7777--9--9---7-5-55-5555-------|
      d     d ud  d ud dudu  d  d   d d ud dudu

 e:|--------------------------------------------------------|
 B:|--------------------------------------------------------|
 G:|--------------------------------------------------------|
 D:|--------2-22--9-99-------------11-11--9-7-77-7777-------|
 A:|--------2-22--9-99-------------11-11--9-7-77-7777-------|
 E:|--3p2p0-0-00--7-77--0567h8p7---9--9---7-5-55-5555-------|
      d     d ud  d ud  dddd       d  d   d d ud dudu
			..... 
			  ^ -> Very quick, and palm muted

 e:|----------------------------------------------|
 B:|----------------------------------------------|
 G:|----------------------------------------------|
 D:|--------2-22--9-99-9999---x9-9999-x9-9999-----|
 A:|--------2-22--9-99-9999---x9-9999-x9-9999-----|
 E:|--3p2p0-0-00--7-77-7777---x7-7777-x7-7777-----|
      d     d ud  d ud dudu    d dudu  d dudu



-- VERSE -- (w/Distortion)

 e:|-------------------------------|
 B:|-------------------------------|
 G:|-------------------------------|
 D:|-6-66-x1111-x99--x7-77---xxxx--|
 A:|-6-66-x1111-x99--x7-77---xxxx--|
 E:|-4-44-x9-9--x77--x5-55---xxxx--|
     d du du d  dud  du du   dudu
[ Tab from: http://www.guitartabs.cc/tabs/l/less_than_jake/robots_one_humans_zero_tab.html ]
 e:|--------------------------------------|
 B:|--------------------------------------|
 G:|--------------------------------------|
 D:|-6-66-x1111-x99--x7-77-7777777--------|
 A:|-6-66-x1111-x99--x7-77-7777777--------|
 E:|-4-44-x9-9--x77--x5-55-5555555--------|
     d du du d  dud  du du ddddddd

 e:|-------------------------------|
 B:|-------------------------------|
 G:|-------------------------------|
 D:|-6-66-x1111-x99--x7-77---xxxx--|
 A:|-6-66-x1111-x99--x7-77---xxxx--|
 E:|-4-44-x9-9--x77--x5-55---xxxx--|
     d du du d  dud  du du   dudu

 e:|--------------------------------------|
 B:|--------------------------------------|
 G:|--------------------------------------|
 D:|-6-66-x1111-x99--x7-77-7777777--------|
 A:|-6-66-x1111-x99--x7-77-7777777--------|
 E:|-4-44-x9-9--x77--x5-55-5555555--------|
     d du du d  dud  du du ddddddd
                           .......
                             ^ Gradually gets louder



-- BRIDGE -- (W/Distortion)

 e:|------------------------------------------|
 B:|------------------------------------------|
 G:|------------------------------------------|
 D:|-9-9-99--x1111111--9-7-x7-77777-x-7-77777-|
 A:|-9-9-99--x1111111--9-7-x7-77777-x-7-77777-|
 E:|-7-7-77--x9-9-9-9--7-5-x5-55555-x-5-55555-|
     d d ud  du d u d  d d dd dudud d d dudud

 e:|----------------------------------------------------------------|
 B:|----------------------------------------------------------------|
 G:|----------------------------------------------------------------|
 D:|-6-66-x1111-x99--x7-77-777777777777777777777777777777777-7\-----|
 A:|-6-66-x1111-x99--x7-77-777777777777777777777777777777777-7\-----|
 E:|-4-44-x9-9--x77--x5-55-555555555555555555555555555555555-5\-----|
     d du du d  dud  du du ddddddddddddddddddddddddddddddddd d
                           ................................. 
                                 ^ Gradually gets louder



-- END -- (W/Distortion)

 e:|----------------------------------------------|
 B:|----------------------------------------------|
 G:|----------------------------------------------|
 D:|--------2-22--9-99-9999---x9-9999-x9-9999-----|
 A:|--------2-22--9-99-9999---x9-9999-x9-9999-----|
 E:|--3p2p0-0-00--7-77-7777---x7-7777-x7-7777-----|
      d     d ud  d ud dudu    d dudu  d dudu

 e:|-----------------------------------|
 B:|-----------------------------------|
 G:|-----------------------------------|
 D:|--------2-22--9-99-9999---7--------|
 A:|--------2-22--9-99-9999---7--------|
 E:|--3p2p0-0-00--7-77-7777---5--------|
      d     d ud  d ud dudu   d 
                              ^ Let Ring

 
Play with pickup selector switch and generate feedback fading out the end.



SONG ORDER:

Intro/Chorus 1
       Verse 1
Intro/Chorus 1
       Verse 1
Intro/Chorus 1
      Bridge 1
Intro/Chorus 1
         End 1
Comments