Less Than Jake - Never Going Back To New Jersey Chords & Tabs

 

Never Going Back To New Jersey Chords & Tabs

Less Than Jake Chords & Tabs

Version: 1 Type: Bass Tab 0 ratings
1 star 2 stars 3 stars 4 stars 5 stars
comments

Never Going Back To New Jersey Bass Tab

   
  BTAB: Never Going Back to New Jersey
Artist: Less Than Jake
 Album: Losing Streak
Author: Rattman (jratt0@hotmail.com)

**Padrino's Bass Tab Exclusive!**

[30 second sample]

Intro:
            x 2         
G------3-3-----------|-0-5-0-
D-----------3-3------|-------
A-3-3------------3-3-|-------
E--------------------|-------

Verse:
G----------------------------------------------------
D-----2-5-2------2------2----2-2-2-------------2-3-5-
A-3-3-------3--3---3--3---3--------0-0-----3-3-------
E--------------------------------------3-3-----------
[ Tab from: http://www.guitartabs.cc/tabs/l/less_than_jake/never_going_back_to_new_jersey_btab.html ]
Chorus:
G-2-2-2-2-------------------------2-2-0-0---------------------------
D---------3-3-3-3---------0-0-0-0---------3-3-2-2-3-3-2-2-0-0-------
A-----------------3-3-3-3-------------------------------------3-2-3-
E-------------------------------------------------------------------

"never going back again..."
G---------------------
D-----------3-3-3-3-3-
A-3-3-3-3-3-----------
E---------------------

Bridge/Sax Solo:
G---------------------------------
D---------------------------------
A-3-3-3-3-3-3-3-3-1-1-1-1-1-1-1-1-
E---------------------------------
  (not exact)



Taken from Padrino's Bass Tab Archive: http://members.xoom.com/jszalma/  

Comments