Less Than Jake - Motto Chords & Tabs

 

Motto Chords & Tabs

Less Than Jake Chords & Tabs

Version: 1 Type: Bass Tab 0 ratings
1 star 2 stars 3 stars 4 stars 5 stars
comments

Motto Bass Tab

Song:Song:Motto        

Band:Less Than Jake    

Album:Hello Rockview

tabbed by:Mathieu.Guimont



INTRO

G:---------------------------------------------------------------

D:---------------------------------------------------------------

A:555555555555------55555555555----------------------------------

E:---------------------------------------------------------------



Then play that a couple of times

G:---------------------------------------------------------------

D:---------------------------------------------------------------

A:555555555555-2222-55555555555-2222-555555555555-2222-----------

E:---------------------------------------------------------------



VERSE

G:---------------------------------------------------------------

D:---------------------------------------------------------------

A:55-555-555-5-22-2--------------33-3----------------------------

E:------------------33-333-333-3---------------------------------



G:---------------------------------------------------------------
[ Tab from: http://www.guitartabs.cc/tabs/l/less_than_jake/motto_btab.html ]
D:---------------------------------------------------------------

A:55-5-22-2------33-3-55-5-22-2------33-3------------------------

E:----------33-3----------------33-3-----------------------------



...im a reason away...

G:---------------------------------------------------------------

D:---------------------------------------------------------------

A:------------------------55555555-------------------------------

E:55555-35-555555-333-555----------------------------------------



ENDING (play each side 2X)



G:-------------------------------*-------------------------------

D:-------------------------------*-------------------------------

A:-------44455544-2222----23-5-5-*--------4444-44-22222---23-5-5-

E:555555---------------32--------*5555-55---------------32-------



G:---------------------------------------------------------------

D:------------------4-4-4-4-4-4-4-4------------------------------

A:-4-4-4-4-4-4-4-4-5-5-5-5-5-5-5-5-------------------------------

E:5-5-5-5-5-5-5-5-------------------5----------------------------
Comments