Less Than Jake - Motown Never Sounded So Good Chords & Tabs

 

Motown Never Sounded So Good Chords & Tabs

Less Than Jake Chords & Tabs

Version: 2 Type: Tab 0 ratings
1 star 2 stars 3 stars 4 stars 5 stars
comments

Motown Never Sounded So Good Tab

   
-------------------------------------------------------------------------------
			     SONG NAME - Motown Never Sounded So Good
-------------------------------------------------------------------------------
Tabbed by: Jeremy Jerk
Email: jr_noidearockz@yahoo.com

Tuning: Standard
VERSE
So you say...
e|-------------------------------------------------------------------------|
B|-----8~8---6-6~6~~6---4~4---4-4~4~~4-----8~8---4-4~4~~4---4~4---6-6~6~~6-|
G|-----8~8---6-6~6~~6---5~5---5-5~5~~5-----8~8---5-5~5~~5---5~5---6-6~6~~6-|
D|-----8~8---6-6~6~~6---6~6---6-6~6~~6-----8~8---6-6~6~~6---6~6---6-6~6~~6-|
A|-------------------------------------------------------------------------|
E|-------------------------------------------------------------------------|
repeat 2x...
PRECHORUS
Well I say to myself...
e|-------------------------------------------------------------------------|
B|---6~6~6~66--44~4--8~8~8~8-8~88~8---6~6~6~66--44~4-----------------------|
G|---6~6~6~66--55~5--8~8~8~8-8~88~8---6~6~6~66--55~5-----------------------|
D|---6~6~6~66--66~6--8~8~8~8-9~99~8---6~6~6~66--66~6-----------------------|
A|-------------------------------------------------------------------------|
E|-------------------------------------------------------------------------|
[ Tab from: http://www.guitartabs.cc/tabs/l/less_than_jake/motown_never_sounded_so_good_tab_ver_2.html ]
...and stop feeling like i'm half alive...
e|-------------------------------------------------------------------------|
B|-------------------------------------------------------------------------|
G|--x4444444466666666------------------------------------------------------|
D|--x4444444466666666------------------------------------------------------|
A|--x2222222244444444------------------------------------------------------|
E|-------------------------------------------------------------------------|
CHORUS
I can't get enough...
e|-------------------------------------------------------------------------|
B|-------------------------------------------------------------------------|
G|-88888888888888885555555555555555-----------------------66666666---------|
D|-8888888888888888555555555555555533333333333355~6~66666-66666666---------|
A|-6666666666666666333333333333333333333333333355~6~66666-44444444---------|
E|---------------------------------11111111111133~4~44444------------------|
repeat 2x
...what matters is on the inside...
e|-------------------------------------------------------------------------|
B|-------------------------------------------------------------------------|
G|--8~8~8~88--66~6---------6~~~--------------------------------------------|
D|--8~8~8~88--66~6--6~6~6--6~~~--------------------------------------------|
A|--6~6~6~66--44~4--6~6~6--4~~~--------------------------------------------|
E|------------------4~4~4--------------------------------------------------|
repeat VERSE 2x
repeat PRECHORUS(this time, follow the strumming in the CHORUS)
repeat CHORUS
ADLIB
e|-------------------------------------------------------------------------|
B|-------------------------------------------------------------------------|
G|--8~8~8~88--66~6-----------6~6~6~6---x4444444466666666-------------------|
D|--8~8~8~88--66~6--6~6~6~6--6~6~6~6---x4444444466666666-------------------|
A|--6~6~6~66--44~4--6~6~6~6--4~4~4~4---x2222222244444444-------------------|
E|------------------4~4~4~4------------------------------------------------|
   [----------repeat 2x-------------]
repeat CHORUS
I can't get enough...
e|-------------------------------------------------------------------------|
B|-------------------------------------------------------------------------|
G|--x8888888855555555------------------------------------------------------|
D|--x8888888855555555888888886666-6~~5~~3~---------------------------------|
A|--x6666666633333333888888886666-6~~5~~3~---------------------------------|
E|------------------x666666664444-4~~3~~1~---------------------------------|
repeat CHORUS

hope you'll understand this, and i hope you've already heard this...

| /  slide up
| \  slide down
| h  hammer-on
| p  pull-off
| ~  vibrato
| +  harmonic
| x  Mute note
Comments