Less Than Jake - Look What Happened Chords & Tabs

 

Look What Happened Chords & Tabs

Less Than Jake Chords & Tabs

Version: 2 Type: Bass Tab 0 ratings
1 star 2 stars 3 stars 4 stars 5 stars
comments

Look What Happened Bass Tab

Jason Rousell


Less Than Jake
Look What Happend
Borders and Boundaries

Intro 1
          x1                                              x4
G---------9--*----9------9------9------9------9------9------9------9-------
D------------*------777----66------------------777----66-------------------
A---7--------*---------------------99---------------------------77---------
E------------*-------------------------------------------------------------

Intro 2
         x3
G---------------------------------------------------------------------------
D---------------------------------------------------------------------------
A---7-7--77-------9-9-9-9-9--9---7-7-7-7-7-6--------------------------------
E---------------------------------------------------------------------------

Intro 3
G---------------------------------------------------------------------------
D---6-6-6-6--6--------------------------------------------------------------
A-----------------9-9-9-9--9--7-7-7-7--7--6--4--2--0------------------------
E------------------------------------------------------------0--------------

Intro 4
G---------------------------------------------------------------------------
D---------------------------------------------------------------------------
A--------------------------------------------6-7-6-4-2----------------------
E---0-0-4-0-0-4-0-0-4-0-0-4-0-0-4-0-----------------------------------------
[ Tab from: http://www.guitartabs.cc/tabs/l/less_than_jake/look_what_happened_btab_ver_2.html ]
Intro 5
G---------------------------------------------------------------------------
D---------------------------------------------------------------------------
A-------------------------------------7-6-7-6-4-2---------------------------
E---0-0-4-0-0-4-0-0-4-0-0-4-0-----------------------------------------------

Verse1
                 x4
G---------------------------------------------------------------------------
D---------------------------------------------------------------------------
A---------------------------------------------------------------------------
Eó0000000000000000--77777777--55555555--------------------------------------

Chorus
                x4
G--------------------------------------------------------------------------
D--------------------------------------------------------------------------
A--------------------------------------------------------------------------
Eó0-0-0-0-7-5-5-5-2-2-2-2-5-5-7-7------------------------------------------

Verse 2

This is verse 1 riff x2 then intro riff 4 x2

Chorus

Intro 1

Chorus

Outro

G--------------------------------------------------------------------------
D-------------7-7-6-6---------7-7-6-6---------7-7-6-6---------7-7-6-6------
A---7-7-7-7----------9-9-9-9---------7-7-7-7---------9-9-9-9---------------
E--------------------------------------------------------------------------

           x2
G-------------------------------------------------------------------------
D-------------------------------------------------------------------------
A---7-7--7-7---9-9-9-9-9--9---7-7-7-7-7--6--------------------------------
E-------------------------------------------------------------------------

End on
G---------
D---------
A----7----
E---------
Comments