Less Than Jake - Laverene And Shirley Chords & Tabs

 

Laverene And Shirley Chords & Tabs

Less Than Jake Chords & Tabs

Version: 1 Type: Bass Tab 0 ratings
1 star 2 stars 3 stars 4 stars 5 stars
comments

Laverene And Shirley Bass Tab

   
LESS THAN JAKE
PEZ KINGS 7"
LOSERS KINGS AND THINGS....
12:49 PM 2/2/97

THIS IS 100% ACURATE TRUST ME 
ON THIS ONE...

GUITAR CHORDS:
C G A F

ALL OF THESE CHORDS ARE USED
JUST FIND THE LOCATION.
THESE ARE THE GUITAR CHORDS FOR THE 
BEGINING OF THE SONG
[ Tab from: http://www.guitartabs.cc/tabs/l/less_than_jake/laverene_and_shirley_btab.html ]
BASS CHORDS:
-----------------------------------------------------------------
----------------------------------3333-5555-555-320----
-333---------------------333---------------------------------
-------333---555-111---------------------------------------

-----------------------------------------------------------------------
------------------------------------------333------------------------
-333-----------------235-333-------------------------------------
-------555-111-3---------------555--------333-1-0-1-013---
OUR WAY YES OUR WAY....DREAMS COME TRUE...
ENDING:
----------------------------------------
---2------------------------------------
-3--3----3-----0------2---3---------
--------5--5--1--1--3--3------------
Comments