Less Than Jake - Last Hour Of The Last Day Of Work Chords & Tabs

 

Last Hour Of The Last Day Of Work Chords & Tabs

Less Than Jake Chords & Tabs

Version: 1 Type: Bass Tab 0 ratings
1 star 2 stars 3 stars 4 stars 5 stars
comments

Last Hour Of The Last Day Of Work Bass Tab

Last Hour of the Last Day of Work
Less Than Jake

Remember to listen to the song to get the rythm.

Verse (come in when singing starts)
"I cant help but think..."
g------------------------------------------------|
d------------------------------------------------|(x2)
a-444444444-444444444----------------------------|
e---------------------111111111-222222222--------|

Chorus
" So when ambition ..."
g------------------------------------------------|
d------------------------------------------------|(x4)
a-44---66----------------------------------------|
e---44---22--------------------------------------|
[ Tab from: http://www.guitartabs.cc/tabs/l/less_than_jake/last_hour_of_the_last_day_of_work_btab.html ]
"... better man, yeah!"
g------------------------------------------------|
d------------------------------------------------|(x1)
a-444444444-444444444----------------------------|
e---------------------111111111-222222222--------|

g------------------------------------------------|
d------------------------------------------------|(x1)
a-444444444-444444444321-------------------------|
e-----------------------111111111-222222222------|
(Go straight to the verse after this. Its all the same until the guitar solo.)

Guitar solo
"...better man." After verse 2
g------------------------------------------------|
d------------------------------------------------|
a-44--66--44--66--44--66--44--66-----------------|
e---4---2---4---2---4---2---4---2----------------|

Then you play the verse until the end.
Comments