Less Than Jake - Krazy Glue Chords & Tabs

 

Krazy Glue Chords & Tabs

Less Than Jake Chords & Tabs

Version: 3 Type: Bass Tab 0 ratings
1 star 2 stars 3 stars 4 stars 5 stars
comments

Krazy Glue Bass Tab

   
----------------------------------------------------------------------------
		       KRAZY GLUE - Less Than Jake
----------------------------------------------------------------------------

Song : Krazy Glue
Artist : Less Than Jake
Album : Losing Streak

Tabbed by KamSolusar (mightymaidenmaniac@hotmail.com)

Email me with any corrections please :)

INTRO

   1.2.3.4. 1.2.3.4. 
G||--------|--------|
D||--------|--------|
A||33333333|44444444|
E||--------|--------|


VERSE

G||--------|--------|--------|--------|--------|--------|--------|--353---|
D||--------|--------|---8----|--------|--------|--------|6--65--5|3-------|
A||---3-4/8|-86-4-34|336--3--|-43-4-36|---3-4/8|-86-4-3-|--------|--------|
E||-4------|--------|--------|--------|44------|--------|--------|------6-|

G||--------|--------|--------|--------|--------|--------|--------|--------|
D||--------|--3-4-6-|-----3--|--3-4-66|---6----|---8----|--------|--------|
A||-----3-3|-4------|---3--34|-4------|888--8-8|666--6--|33333333|44444444|
E||-4-4----|--------|-4------|--------|--------|--------|--------|--------|

G||--------|--------|--------|--------|--------|--------|--------|--------|
D||--------|--------|---8----|--------|--------|--------|6--65--5|3--3----|
A||---3-4/8|-86-4-34|336--3--|-43-4-36|---3-4/8|-86-4-3-|--------|----6--6|
E||-4------|--------|--------|--------|44------|--------|--------|--------|

CHORUS

G||--------|--------|--------|--------|--------|--------|--------|--------|
D||--------|--------|--------|--------|--------|--------|--------|--------|
A||-------6|88888666|44444444|44-4-4--|-------6|88888666|33333333|44444444|
E||4444444-|--------|--------|--------|4444444-|--------|--------|--------|

VERSE 2
[ Tab from: http://www.guitartabs.cc/tabs/l/less_than_jake/krazy_glue_btab_ver_3.html ]
G||--------|--------|--------|--------|--------|--------|--------|--353---|
D||--------|--------|---8----|--------|--------|--------|6--65--5|3-------|
A||---3-4/8|-86-4-34|336--3--|-43-4-36|---3-4/8|-86-4-3-|--------|--------|
E||-4------|--------|--------|--------|44------|--------|--------|------6-|

G||--------|--------|--------|--------|--------|--------|--------|--------|
D||--------|--3-4-6-|-----3--|--3-4-66|---6----|---8----|--------|--------|
A||-----3-3|-4------|---3--34|-4------|888--8-8|666--6--|33333333|44444444|
E||-4-4----|--------|-4------|--------|--------|--------|--------|--------|

MIDDLE 8

G||--------|--------|--------|--------|--------|--------|--------|--------|
D||--------|--------|--------|--------|--------|--------|--------|--------|
A||66666666|66666666|44444443|----3434|66666666|66666666|44444443|----3434|
E||--------|--------|--------|4444----|--------|--------|--------|4444----|

G||--------|--------|--------|--------|--------|--------|--------|--------|
D||--------|----565-|--------|--------|--------|--------|--------|--------|
A||66666666|6666---6|44444443|33334444|66666666|33333333|44444444|--------|
E||--------|--------|--------|--------|--------|--------|--------|44444444|

OUTRO

G||--------|--------|--------|--------|--------|--------|--------|--------|
D||-------3|3--66---|--------|--------|-------3|3-------|--------|--------|
A||---66---|-------4|4--33--4|4--66---|---66---|---44--4|4--33--4|4--66---|
E||4-------|--------|--------|-------4|4-------|--------|--------|-------4|

G||--------|--------|--------|--------|--------|--------|--------|--------|
D||--------|--------|--------|--------|--------|--------|--------|--------|
A||--------|6888866-|3-------|---4-3--|--------|6888866-|3-------|4-------|
E||4-------|--------|--------|-------4|4-------|--------|--------|--------|

G||--------||
D||6-------||*fin*
A||--------||
E||--------||



| /  slide up
| \  slide down
| h  hammer-on
| p  pull-off
| ~  vibrato
| +  harmonic
| x  Mute note
Comments