Less Than Jake - Just Like Frank Chords & Tabs

 

Just Like Frank Chords & Tabs

Less Than Jake Chords & Tabs

Version: 1 Type: Bass Tab 0 ratings
1 star 2 stars 3 stars 4 stars 5 stars
comments

Just Like Frank Bass Tab

Song: Just Like Frank
Artist: Less Than Jake
Tabbed By: Andreas Skotheim (asskt2001@skateboard.com)

intro:

1----------------------------7-------
2------------------------7-------7---
3--5-5---5-5---5-5---5-5---5---5---5-   1x
4------------------------------------

verse:

1-----------------------------
2-----------------------------
3--55555-222222---------------     4x
4---------------000000-333-555

1----------------------------------------------------------------
2----------------------------------------------------------------
3------------------7777777-7777777-10-10-10-99-10-9--5-5-5-44-5-4
4--5555555-5555555-----------------------------------------------   1 1/2 x

if you just listen to the song you`ll hear him slapping fast on the 10 to 
enter the chorus.

chorus:

1------------------------------
2------------------------------
3--55555--------77777-9-10-9109      4x
4--------555555----------------

bridge:

1-------------------------------------------------------
2-----------44554-----4-4-4-2-4--2---5-5---5-----5-----4
3--5-5--5-5-------2-2-----------------------------------
4----------------------------------3-----3---3-3---5-5--
[ Tab from: http://www.guitartabs.cc/tabs/l/less_than_jake/just_like_frank_btab.html ]
1----------------------------------------------------------------
2--0-4-5-7-5-5-4-5-4-0-----4-4-4-2-4--2---5-5---5-----5-------4--
3----------------------2-2---------------------------------------
4---------------------------------------3-----3---3-3---3-5-5---5

verse 1st part 1x and a half

interlude:

1------------------------------------------
2--------------------------------------------------------
3-------------------------------------------4-5-0-7-0-4-0
4-000000-000000-333333-333333-555555-555555--------------

interlude: play it FAST!

1------------------------------------------------2------------------------- 
this part you
2----------0-04-5-4-0---------0--0-0-0---------0---4-5-4-2---------0--0-0-0 
can play 1x,than
3------0-0----------------0-0--------------0-0-----------------0-0--------- 
you play it once
4--3-3----------------3-3--------------3-3-----------------3-3------------- 
more, but at the
end you will play like this instead:

1-----------------------------
2--2---------2---------2-----2
3-----------------------------
4----0-0-0-0---0-0-0-0---0-0--

chorus: 2x

outro:

1-------------------------------------------------------------------------
2-------------------------------------------------------------------------
3--5-555555-5-555555-2-222222-2-222222------------------------------------
4--------------------------------------0-000000-0-000000-3-333333-5-555555

than you play the second part at the bridge, end at a slap on the 3rd string 
5, and there
you go.!!!!!!

TABBED BY Andreas!

Comments