Less Than Jake - Johnny Quest Thinks Were Sellouts Chords & Tabs

 

Johnny Quest Thinks Were Sellouts Chords & Tabs

Less Than Jake Chords & Tabs

Version: 2 Type: Bass Tab 0 ratings
1 star 2 stars 3 stars 4 stars 5 stars
comments

Johnny Quest Thinks Were Sellouts Bass Tab

Song: Johnny Quest Thinks We're Sellouts
Band: Less Than Jake
Album: Losing Streak
tabbed by: Adam Marish

Just wanted to say that the other tab is close...but I just
tried to get the whole song as close as possible...here it
is.

Intro (played groovy)
                                  1st End    2nd End...1st Again
G:-------------------------------|----------|--------------
D:-----6--------------------6----|-7-6------|-79--76-------
A:-4-7---7-----3-66-3---4-7---7--|-----77-6-|---76--76-----
E:-----------4-------------------|----------|--------------

Fast Ska Guitar

Cool Riff               Conversion to Verse (Horn Section)
                        3x          1x
G:---------------------|-----------|--------------------
D:---------------------|--2-2------|--2-2--76-----------
A:-4-4-3---4-4-347-----|-4-4---3-3-|-4-4------76--------
E:---------------------|------4-4--|--------------------

Verse (Almost Same as Intro...just Faster)

G:---------------------------------------- Roger Varies The Riff
D:-----6-------------------6-----7-6------ Endings Up A Lot...I
A:-4-7---7-----3-6-3---4-7---7-------7-6-- Can't Figure Them All
E:-----------4---------------------------- Out...So You Try
[ Tab from: http://www.guitartabs.cc/tabs/l/less_than_jake/johnny_quest_thinks_were_sellouts_btab_ver_2.html ]
Chorus
  1x                        1x                       
G:-------------------------|------------------------- Then Play
D:-------------------------|------43-43---6---------- The First
A:-111--------4-4-4--------|-111--------4-------6---- Half 
E:-----2-2-2---------4-4-4-|------------------4---4-- Twice

Interlude (note: this is not exact...I don't think anyone will
           nail it note for note...this is the best I could tab)

  This is close             ^ means to hammer-on
G:------------------------|----------------------------------
D:------11--4-22-11-------|-------11-2^4-2-------------------
A:------------------44-22-|----------------4-2--2^4-2^4-2----
E:-22-2-------------------|--22-2----------------------------

                          this is right... ~ means to slide
G:-----------------------|-----------------------------------
D:------11---------------|------11--1~2-1~2-1~2-1-1----------
A:---------4-22-11-22-11-|--------------------------4-2------
E:-22-2------------------|-22-2------------------------------


Then you just go into the chorus twice and then the cool riff
twice.  Well I hope this helps you all...that is pretty damn
close...enjoy

Adam
The Royal Noise Brigade - Awesome Pa Ska
http://members.tripod.com/royalnoisebrigade
Comments