Less Than Jake - Hows My Driving Doug Hastings Chords & Tabs

 

Hows My Driving Doug Hastings Chords & Tabs

Less Than Jake Chords & Tabs

Version: 1 Type: Bass Tab 0 ratings
1 star 2 stars 3 stars 4 stars 5 stars
comments

Hows My Driving Doug Hastings Bass Tab

Tabbed by Jess 
email : xx_rainbow_ska_xx@hotmail.com



Intro
G-----------------------------------
D-----------------------------------
A--------------4H66-----------------
E---66-444-4H6----------------------

Verse
G-----------------------------------
D-----------6p5---------6p5h5-8-6p5-
A---6--6--6-----6---6--6------------
E--6-66--6---------6-66-------------

G-----------------------------------
D--------------------------6-5-3-1--
A---6--6-6p5h6-8-6p5--6-6-----------
E--6-66--------------6-6------------
[ Tab from: http://www.guitartabs.cc/tabs/l/less_than_jake/hows_my_driving_doug_hastings_btab.html ]
Bridge
G------------------------------------
D-6-6p5-p5-5p3-3p1-1h4-4p3-3---------
A---------------------------66666-4--
E----------------------------------44

("f*** doug" - no bass)

Chorus
G------------------------------------
D------------------------------------
A-33444-----------3344444-6-8-6-4p3--
E------646-88-6-4--------------------

G-----------------------------------
D-----------------------------------
A-33-444-----------3-3-444----------
E-------646-88-6-4---------22244----

Intro
Verse x2
Bridge
Chorus
Verse x1
Bridge
Chorus
Comments