Less Than Jake - Growing Up On The Couch Chords & Tabs

 

Growing Up On The Couch Chords & Tabs

Less Than Jake Chords & Tabs

Version: 1 Type: Bass Tab 0 ratings
1 star 2 stars 3 stars 4 stars 5 stars
comments

Growing Up On The Couch Bass Tab

Song: Growing up on the couch    
Band: Less Than Jake    
Album: Pezcore
tabbed by:Mathieu.Guimont

INTRO

G:---------------------------------------------------------------
D:---------------------------------------------------------------
A:5-5-5-55555-------------------------3-3-3-33333----------------
E:------------3-3-3-33333-0-0-0-00000----------------------------

VERSE

G:---------------------------------------------------------------
D:--------7-5-4---------7-5-4---------4-5-4---------5-4-5--------
A:5-5-555-----------------------------------3-3-333--------------
E:--------------3-3-333-------0-0-000----------------------------
[ Tab from: http://www.guitartabs.cc/tabs/l/less_than_jake/growing_up_on_the_couch_btab.html ]
"when comfort comes before the truth.."                                             
G:---------------------------------------------------------------
D:---------------------------------------------------------------
A:----------55555555----------33-33-33-33-33-33-33-33------------
E:-33333333----------00000000------------------------------------

"Do you believe the lies..."

G:---------------------------------------------------------------
D:---------------------------------------------------------------
A:----------2222-3333-5555-5555-2222-3333-----------2222-3333----
E:-3333-3333------------------------------3333-3333--------------

G:---------------------------------------------------------------
D:---------------------------------------------------------------
A:-5555-5555--3-3--3-3--3-3--3-3--5------------------------------
E:---------------------------------------------------------------
Comments