Less Than Jake - Gainsville Rock City Chords & Tabs

 

Gainsville Rock City Chords & Tabs

Less Than Jake Chords & Tabs

Version: 3 Type: Tab 0 ratings
1 star 2 stars 3 stars 4 stars 5 stars
comments

Gainsville Rock City Tab

   
-------------------------------------------------------------------------------
		     GAINSVILLE ROCK CITY - Less Than Jake
-------------------------------------------------------------------------------
>> Track 7 from the album "Borders & Boundaries"

Intro (With Sax/Trombone Solo Adapted For Guitar)
=====================================================
     E           A              C#m             F#
e|---0-----------0---------------4------------------------|
B|---0-----------2---------------4------------------------|
G|---1--1--2--4--2--4--2-1-------6--------------3--4-4-4-2|
D|---2-----------2---------4-2---6--7--6--4-----4---------|
A|---2-----------0---------------4---------7----4---------|
E|---0------------------------------------------2---------|
     V           V               ^              ^

     E           A              C#m             F#
e|---0-----------0---------------4---------------------|
B|---0-----------2---------------4---------------------|
G|---1--1--2--4--2--4--2-1-------6--------------3--6-4-|
D|---2-----------2---------4-2---6--7--6--4-----4------|
A|---2-----------0---------------4---------7----4------|
E|---0------------------------------------------2------|
     V           V               ^              ^


Main Riff
=====================================================
e|-------------------------------|                    
B|-------------------------------|                     
G|-------------------------------|                     
D|---------------------6h7--6h7--|                     
A|---5h7---4h5---2h4-------------|                     
E|-------------------------------| Play 4 Times Then...
[ Tab from: http://www.guitartabs.cc/tabs/l/less_than_jake/gainsville_rock_city_tab_ver_3.html ]
e|------------------|
B|------------------|
G|---------------5--|
D|---------------7--|
A|---5h7---4h5---7--|
E|---------------5--|


Verse
========================================================
E (open)                                                                
This map hung up on the truck stop hallway door
                                        A (5th fret bar)
is looking worn and I can hardly read it anymore
E
I feel like I'm a speck thrown on the map
and I can't help my urge to laugh
                      A
I never used to feel like that


Chorus
==========================================
         F#5  B5            E5    C#5
e|-------------------------------------|
B|-------------------------------------|
G|--------------------------9------6---|
D|-------4-----9------------9------6---| 
A|-------4-----9------------7------4---| 
E|-------2-----7-----------------------| 
Well I'm half awake half a world away
all my past mistakes and every wasted day

           B       A         E
I wouldn't have it any other way


Main Riff (x4)
===================

Verse 2
===========================================
I'll try through my haze and half shut eyes
to count up all the reasons why
I should be back at home tonight

Chorus 2
==========================================
Half awake half a world away
all my past mistakes and every wasted day
proves that I'll never change
I'll always stay the same
I wouldn't have it any other way (x4)

Intro Riff x2
==========================================
(Sings "Gainsville Rock City" x3 over 2nd time of intro riff)

Main Riff x4
======================

Chorus
=====================
Playing intro chords (add a bit of speed)

Outro
=====================
End with Main Riff x1

**********************************************
Comments