Less Than Jake - Big Crash Chords & Tabs

 

Big Crash Chords & Tabs

Less Than Jake Chords & Tabs

Version: 2 Type: Tab 0 ratings
1 star 2 stars 3 stars 4 stars 5 stars
comments

Big Crash Tab

justin, justinnicholson@worldnet.att.net
Less than jake
Big crash

Play very fast.

Intro (Barre)
e|-7--7--7--7--7--7--/-5-5-5-5-5-5-5-5-5-5-5-5-/-3-3-3-3-3-3--|
B|-10-10-10-10-10-10-/-8-8-8-8-8-8-8-8-8-8-8-8-/-6-6-6-6-6-6--|
G|-9--9--9--9--9--9--/-7-7-7-7-7-7-7-7-7-7-7-7-/-5-5-5-5-5-5--|
D|-7--7--7--7--7--7--/-5-5-5-5-5-5-5-5-5-5-5-5-/-3-3-3-3-3-3--|
A|-7--7--7--7--7--7--/-5-5-5-5-5-5-5-5-5-5-5-5-/-3-3-3-3-3-3--|
E|-7--7--7--7--7--7--/-5-5-5-5-5-5-5-5-5-5-5-5-/-3-3-3-3-3-3--|

(Cont.)
e|-7--7--7--7--7--7--/-5-5-5-5-5-5-5-5-5-5-5-5-/-3-3-3-3-3-3--|
B|-10-10-10-10-10-10-/-8-8-8-8-8-8-8-8-8-8-8-8-/-6-6-6-6-6-6--|
G|-9--9--9--9--9--9--/-7-7-7-7-7-7-7-7-7-7-7-7-/-5-5-5-5-5-5--|
D|-7--7--7--7--7--7--/-5-5-5-5-5-5-5-5-5-5-5-5-/-3-3-3-3-3-3--|
A|-7--7--7--7--7--7--/-5-5-5-5-5-5-5-5-5-5-5-5-/-3-3-3-3-3-3--|
E|-7--7--7--7--7--7--/-5-5-5-5-5-5-5-5-5-5-5-5-/-3-3-3-3-3-3--|

(Cont.)
e|-7--7--7--7--7--7-/-9--9--9--9--9--9--/-5-5-5-5-5-5-/-3-3-3-3-3-3--|
B|-10-10-10-10-10-10/-12-12-12-12-12-12-/-8-8-8-8-8-8-/-6-6-6-6-6-6--|
G|-9--9--9--9--9--9-/-11-11-11-11-11-11-/-7-7-7-7-7-7-/-5-5-5-5-5-5--|
D|-7--7--7--7--7--7-/-9--9--9--9--9--9--/-5-5-5-5-5-5-/-3-3-3-3-3-3--|
A|-7--7--7--7--7--7-/-9--9--9--9--9--9--/-5-5-5-5-5-5-/-3-3-3-3-3-3--|
E|-7--7--7--7--7--7-/-9--9--9--9--9--9--/-5-5-5-5-5-5-/-3-3-3-3-3-3--|

(Cont.)
e|-7--7--7--7--7--7--/-5-5-5-5-5-5-5-5-5-5-5-5-/-3-3-3-3-3-3--|
B|-10-10-10-10-10-10-/-8-8-8-8-8-8-8-8-8-8-8-8-/-6-6-6-6-6-6--|
G|-9--9--9--9--9--9--/-7-7-7-7-7-7-7-7-7-7-7-7-/-5-5-5-5-5-5--|
D|-7--7--7--7--7--7--/-5-5-5-5-5-5-5-5-5-5-5-5-/-3-3-3-3-3-3--|
A|-7--7--7--7--7--7--/-5-5-5-5-5-5-5-5-5-5-5-5-/-3-3-3-3-3-3--|
E|-7--7--7--7--7--7--/-5-5-5-5-5-5-5-5-5-5-5-5-/-3-3-3-3-3-3--|

Verse PT1 (x2)
e|----------------------------------------------------|
B|----------------------------------------------------|
G|--------------------------------5--5--5--5--5--4-4--|
D|-5-x-x-x-5-3-x-x-x-3-3-x-x-x-3--5--5--5--5--5--4-4--|
A|-5-x-x-x-5-3-x-x-x-3-3-x-x-x-3--3--3--3--3--3--2-2--|
E|-3-x-x-x-3-1-x-x-x-1-1-x-x-x-1----------------------|
Sometimes, I think somethings wrong with me.....
[ Tab from: http://www.guitartabs.cc/tabs/l/less_than_jake/big_crash_tab_ver_2.html ]
Verse PT2 (x2)
e|--------------------------------------------------------------|
B|--------------------------------------------------------------|
G|----------------------------------------------5-5-5-5-5--4-4--|
D|-5-5-5-5-5-5-5--3-3-3-3-3-3-3-3-3-3-3-3-3-3-3-5-5-5-5-5--4-4--|
A|-5-5-5-5-5-5-5--3-3-3-3-3-3-3-3-3-3-3-3-3-3-3-3-3-3-3-3--2-2--|
E|-3-3-3-3-3-3-3--1-1-1-1-1-1-1-1-1-1-1-1-1-1-1-----------------|
or anything....

Next (x3)
e|-----------------------------------------------|
B|-----------------------------------------------|
G|-----------8-8-8-8-8-10-10-10-10-10------------|
D|-8-8-8-8-8-8-8-8-8-8-10-10-10-10-10-8-8-8-8-8--|
A|-8-8-8-8-8-6-6-6-6-6--8--8--8--8--8-8-8-8-8-8--|
E|-6-6-6-6-6--------------------------6-6-6-6-6--|
And you know, they've always had.....

Then (x1)
e|--------------------------------|
B|--------------------------------|
G|-----------------------------8--|
D|-8-8-8-8--6-6-6-6--5-5-5-5---8--|
A|-8-8-8-8--6-6-6-6--5-5-5-5---6--|
E|-6-6-6-6--4-4-4-4--3-3-3-3------|

Chorus (x2)
e|-----------------------------------------------|
B|-----------------------------------------------|
G|-----------8-8-8-8-8-10-10-10-10-10------------|
D|-8-8-8-8-8-8-8-8-8-8-10-10-10-10-10-8-8-8-8-8--|
A|-8-8-8-8-8-6-6-6-6-6--8--8--8--8--8-8-8-8-8-8--|
E|-6-6-6-6-6--------------------------6-6-6-6-6--|
Big plans, big crash, why be different......

Verse 2 Pt1 (x2)
e|------------------------------------------------|
B|------------------------------------------------|
G|--------------------------------8-8-8-8-8--7-7--|
D|-8-x-x-x-8-6-x-x-x-6-6-x-x-x-6--8-8-8-8-8--7-7--|
A|-8-x-x-x-8-6-x-x-x-6-6-x-x-x-6--6-6-6-6-6--5-5--|
E|-6-x-x-x-6-4-x-x-x-4-4-x-x-x-4------------------|

Verse 2 PT2 (x2)
e|-------------------------------------------------------------|
B|-------------------------------------------------------------|
G|----------------------------------------------8-8-8-8-8-6-6--|
D|-8-8-8-8-8-8-8--6-6-6-6-6-6-6-6-6-6-6-6-6-6-6-8-8-8-8-8-6-6--|
A|-8-8-8-8-8-8-8--6-6-6-6-6-6-6-6-6-6-6-6-6-6-6-6-6-6-6-6-4-4--|
E|-6-6-6-6-6-6-6--4-4-4-4-4-4-4-4-4-4-4-4-4-4-4----------------|

Next   (x3)
Then   (x1)
Chorus (x3)

Interlude (x2) (ska)
e|-4-4-4-4-4--2-2-2-2-2-2--4-4-4-4-4--2-2-2-2-2-2--|
B|-6-6-6-6-6--2-2-2-2-2-2--4-4-4-4-4--2-2-2-2-2-2--|
G|-6-6-6-6-6--3-3-3-3-3-3--5-5-5-5-5--3-3-3-3-3-3--|
D|-4-4-4-4-4--4-4-4-4-4-4--6-6-6-6-6--4-4-4-4-4-4--|
A|-4-4-4-4-4--4-4-4-4-4-4--6-6-6-6-6--4-4-4-4-4-4--|
E|-4-4-4-4-4--2-2-2-2-2-2--4-4-4-4-4--2-2-2-2-2-2--|

Outro (x4)
e|-------------------------------------------------|
B|-------------------------------------------------|
G|-6-6-6-6-6--5-5-5-5-5-5--4-4-4-4-4---------------|
D|-6-6-6-6-6--5-5-5-5-5-5--4-4-4-4-4--4-4-4-4-4-4--|
A|-4-4-4-4-4--3-3-3-3-3-3--2-2-2-2-2--4-4-4-4-4-4--|
E|------------------------------------2-2-2-2-2-2--|

Comments