Less Than Jake - Automatic Chords & Tabs

 

Automatic Chords & Tabs

Less Than Jake Chords & Tabs

Version: 1 Type: Bass Tab 0 ratings
1 star 2 stars 3 stars 4 stars 5 stars
comments

Automatic Bass Tab

LESS THAN JAKE
AUTOMATIC
LOSING STREAK

FIGURED OUT BY: Steve Martin


INTRO:(PLAY WHEN HORNS COME IN)
G----------------------------------------------------------------------
D----------------------------------------------------4444-555-4--
A-5555-----------2222------------5555--------------------------
E----------3333----------33-555---------333--------------------

VERSE:
G--------------------------------------------------------------------
D--4---4----------------7-5555-4-454-----------45554-----
A-5-5-5-5-7777--------------------------5-----45---------5--
E---------------------5-------------------------5------------------

CHOURS:
G------------------------------------------------------------------
D-------------------------------------------------------------------
A-5555----------2222-----------5555------------------------
E---------3333-----------3-555---------3333-2222-3-5---
[ Tab from: http://www.guitartabs.cc/tabs/l/less_than_jake/automatic_btab.html ]
G------------------------------------------------------------
D-------------------------------------------------------------
A-5555----------------------5555------------------------
E---------3333-555-333------------3333-2-3-5------

INTERLUDE: (NOT POSITIVE ON THIS ONE)
G--------------------------------
D--------------------------------
A------------------------7777-
E-7777-5555---4-5---------

ENDING:
G-------------------------------------------------------------------
D--------------------------------------------------666-77-99---
A-7777-----------4444-------7777----------------------------
E----------5555----------5-7----------5555-------------------

G--------------------------------------------------------------------
D--------------------------------------------------------------------
A-7777-------4444--------------7777--------------7-7777-
E--------5555------5555-7777---------555-4-5-7----------

Comments