Less Than Jake - All My Best Friends Are Metalheads Chords & Tabs

 

All My Best Friends Are Metalheads Chords & Tabs

Less Than Jake Chords & Tabs

Version: 3 Type: Tab 0 ratings
1 star 2 stars 3 stars 4 stars 5 stars
comments

All My Best Friends Are Metalheads Tab

Less Than Jake- All My Best Friends are Metal Heads.
 Tabbed by Peter Mangan/ a.mangan@xtra.co.nz.
  
Less Than Jake
All My best friends are Metal Heads
>From the album "Hello Rockview"
Tabs by Peter Mangan
Email: a.mangan@xtra.co.nz

Intro:

e----------------------------------------------
B----------------------------------------------
G--9-8-9-6-6-6-6/-8-9-x-x-x-x-9-9-9-9-/11------
D--9-9-9-7-7-7-7/-9-9-x-x-x-x-9-9-9-9-/11------
A----------------------------------------------
E----------------------------------------------

e---------------------777-7-7------------------
B---------------------999-7-9-----------------
G--9-8-9-6-6-6-6/-8---999-8-9--9---------------
D--9-9-9-7-7-7-7/-9------------9---------------
A------------------------------7---------------
E----------------------------------------------


VERSE
ska strumming- up strokes

e--7-7-7-7---5-5--7-7--------   Play  3 times
B--9-9-9-9---5-5--7-7--------
G--9-9-9-9---6-6--8-8--------
D----------------------------
A----------------------------
E----------------------------

e--5-5-5-5--7-7-7-7----------       
B--5-5-5-5--9-9-9-9----------      Play through 
G--6-6-6-6--9-9-9-9----------          3 times
D----------------------------
A----------------------------
E----------------------------
[ Tab from: http://www.guitartabs.cc/tabs/l/less_than_jake/all_my_best_friends_are_metalheads_tab_ver_3.html ]
And on the third time play
e-5-5-5-5----7-7-7-7-7-7-7-7-7-7-7-7-----------
B-5-5-5-5----9-9-9-9-7-7-7-7-7-7-7-7-----------
G-6-6-6-6----9-9-9-9-6-6-6-6-6-6-6-6-----------
D----------------------------------------------
A----------------------------------------------
E----------------------------------------------

CHORUS
Normal strumming: Listen to CD to get rythm
e----------------------------------------------
B----------------------------------------------
G--9------------------------
D--9-----7---9--------------    Play 3 times
A--7-----7---9--------------
E--------5---7--------------

on the third time play
e----------------------------------
B----------------------------------
G--9-------------------------------
D--9---7---9---7-------------------
A--7---7---9---7-------------------
E------5---7---5-------------------

Play Through:
VERSE

CHORUS

Then play intro riff 

BRIDGE/ INSTRAMENTAL listen to CD fo rythm
e---------------------
B---------------------
G--9--9--6--7---------
D--9--9--6--7---------   Play twice
A--7--6--4--5---------
E---------------------

Play Chorus then play last chorus which is:
e-----------------------
B-----------------------
G--11-------------------
D--11--9---11----------- Play 3 times
A--9---9---11-----------
E------7---9------------

And on the 3rd time play
e--------------------------
B--------------------------
G--11----------------------
D--11--9--11--9------------
A--9---9--11--9------------
E------7--9---7------------

To Finish play the intro riff once.
Its a great song HAVE FUN!


 
:: Ultimate Guitar Archive :: 
http://www.ultimate-guitar.com 

 
Comments