Less Than Jake - All My Best Friends Are Metalheads Chords & Tabs

 

All My Best Friends Are Metalheads Chords & Tabs

Less Than Jake Chords & Tabs

Version: 3 Type: Bass Tab 0 ratings
1 star 2 stars 3 stars 4 stars 5 stars
comments

All My Best Friends Are Metalheads Bass Tab

Song:All my best friends are metalheads
Band:LESS THAT JAKE
Album:Hello Rockview
tabbed by:Mathieu.Guimont

INTRO
G:---------------------------------------------------------------|
D:---------------------------------------------------------------|
A:7-------7-------7------5555--55--------------------------------|
E:--------------------------------5------------------------------|
[ Tab from: http://www.guitartabs.cc/tabs/l/less_than_jake/all_my_best_friends_are_metalheads_btab_ver_3.html ]
VERSE
G:----------------------------------------------------------------|
D:---6-----6-------------------6-7-9--7-6-7--6-----------6----6---|
A:77---7-7---7----4------6---7-----------------9-7-6-------77---7-|
E:-------------55---5-77---7-------------------------9-7----------|
                                      1st End      2nd End
G:-----------------------------------*-----------*---------------|
D:--6------7------9------6-----6-----*-----------*---7----9------|
A:7---7---------------77---7-7---7---*-----------*---------------|
E:------55-----77--------------------*-5----7----*-5----7--------|

"And did you know about his strenght of conviction..."
G:----------------------------------------------------------------|
D:--------------66-77-99----77-55-44---------------------------66-|
A:---44-55-7777----------------------77-55-44-------44-55-7777----|
E:55---------------------55-------------------77-55---------------|

G:---------------------------------------------------------------|
D:77-99----9----9----9-9-9---------------------------------------|
A:------77---77---77---------------------------------------------|
E:---------------------------------------------------------------|

CHORUS                  ENDING
G:-----------------|   |-----------------------------------------|
D:-----------------|   |-----------------------------------------|
A:7----------------|   |-9---------------------------------------|
E:---5--5-5--7-7---|   |----7--7-7--9-9--------------------------|
Comments