Less Than Jake - A Still Life Franchise Chords & Tabs

 

A Still Life Franchise Chords & Tabs

Less Than Jake Chords & Tabs

Version: 1 Type: Tab

A Still Life Franchise Tab

-------------------------------------------------------------------------------
               A Still Life Franchise - Less Than Jake
-------------------------------------------------------------------------------
Tabbed by:identityxcrysis
Email:masteroftheonering@hotmail.com

Tuning:EADGBE (Standard)


Intro -
For this part, just play around with plucking this chord, it's kinda hard to figure out 
being played, but it'll probably sound fine no matter what, and it's not too hard to 
it out basically.
e|-6--------|
B|-7--------|
G|-8--------|
D|-8--------|
A|----------|
E|----------|

e|-6-6-6-6-----|
B|-7-7-7-7-----|
G|-8-8-8-8-----|
D|-8-8-8-8-----|
A|-------------|
E|-------------|


Verse - Ska Chords
e|-6-6-x-6-x-6-x-6-x-6-x-6-x-6-x-6-x-2-x-2-x-2-x-2-x-2-x-2-x-2-x-2-x---------|
B|-7-7-x-7-x-7-x-7-x-7-x-7-x-7-x-7-x-3-x-3-x-3-x-3-x-2-x-2-x-2-x-2-x---------|
G|-8-8-x-8-x-8-x-8-x-8-x-8-x-8-x-8-x-4-x-4-x-4-x-4-x-3-x-3-x-3-x-3-x---------|
D|---------------------------------------------------------------------------|
A|---------------------------------------------------------------------------|
E|---------------------------------------------------------------------------|

Chorus -
This part, with everything going on along with the distortion, it's hard to get the 
 So if you wanna hear the rhythm for the chorus, go here:
http://lessthanjake.textamerica.com/Default.aspx?r=3605202&term=still+life+franchise
[ Tab from: http://www.guitartabs.cc/tabs/l/less_than_jake/a_still_life_franchise_tab.html ]
e|------------------------------------------|
B|------------------------------------------|
G|-6-6-6666--6-6-6666-----------------------|
D|-6-6-6666--6-6-6666--6-6-6666--6-6-6666---|
A|-4-4-4444--4-4-4444--6-6-6666--6-6-6666---|
E|---------------------4-4-4444--4-4-4444---|


e|-------------------------------------------------------|
B|-------------------------------------------------------|
G|-4-4--4-44-4-44-4-44-4---------------------------------|
D|-4-4--4-44-4-44-4-44-4--44-4-44-4-44-4-44-4------------|
A|-2-2--2-22-2-22-2-22-2--44-4-44-4-44-4-44-4------------|
E|------------------------22-2-22-2-22-2-22-2------------|







Bridge
e|-x-6-x-6-x-6-x-6-x-6-x-6-x-6-x-6-------------------------------|
B|-x-7-x-7-x-7-x-7-x-7-x-7-x-7-x-7-------------------------------|
G|-x-8-x-8-x-8-x-8-x-8-x-8-x-8-x-8--4-4-4444---------------------|
D|----------------------------------4-4-4444--4-4-4444-----------|
A|----------------------------------2-2-2222--4-4-4444-----------|
E|--------------------------------------------2-2-2222-----------|

Outro 0
e|--------------------------------------------|
B|--------------------------------------------|
G|--------------------------------------4-----|
D|-6666666666666666---------------------4--4--|
A|-4444444444444444-6666666666666666----2--4--|
E|------------------4444444444444444-------2--|
P.M.--------------------------------|

And that's all!
Pretty easy ska song, if there's anything wrong, let me know!


===============================================================================