Less Than Jake - 9th At Pine Chords & Tabs

 

9th At Pine Chords & Tabs

Less Than Jake Chords & Tabs

Version: 2 Type: Tab 0 ratings
1 star 2 stars 3 stars 4 stars 5 stars
comments

9th At Pine Tab

   
                
 Less than Jake- 9th at pine


The other tab for this sucks. So here is the correct tab. This song rules ( the
whole album rules ) so if you don't have this album already i advise you to get
it. It's probaly the best ltj album. Actually I can't say that there all amazing
Fair enough person who's already tabbed  this you did okay with the first 2 chords
(A#+G#) but other than that it is completely incorrect.
This songs actually tuned down 1/2 a step.( Eb,Ab,Db,Bb,Gb,eb ) That's if you
want to play along with the cd but if you can't be bothered to tune it down just
use standard tuning.
I've put the chords under the tabs if you find it easier.

   Intro/Chorus (play ska style), clean (non distort)

eb|-7-7-7-7-7-7-7-7-5-5-5-05-050-5-5-7----------------------------------------|
Bb|-7-7-7-7-7-7-7-7-5-5-5-55-555-5-5-7----------------------------------------|
Gb|-8-8-8-8-8-8-8-8-6-6-6-66-666-6-6-8---x3-----------------------------------|
Db|-9-9-9-9-9-9-9-9-7-7-7-77-777-7-7-9----------------------------------------|
Ab|---------------------------------------------------------------------------|
Eb|---------------------------------------------------------------------------|
    B               A

   do this on the last time ( Distort when power chords come in )
eb|-7-7-7-7-7-7-7-7-----------------------------------------------------------|
Bb|-7-7-7-7-7-7-7-7-----------------------------------------------------------|
Gb|-8-8-8-8-8-8-8-8-----------------------------------------------------------|
Db|-9-9-9-9-9-9-9-9-6-6-6-666-2-2-2-222---------------------------------------|
Ab|-----------------6-6-6-666-2-2-2-222---------------------------------------|
Eb|-----------------4-4-4-444-0-0-0-000---------------------------------------|
   B                G#m       E

[ Tab from: http://www.guitartabs.cc/tabs/l/less_than_jake/9th_at_pine_tab_ver_2.html ]
   Verse
eb|---------------------------------------------------------------------------|
Bb|---------------------------------------------------------------------------|
Gb|------------4-4-4-444------------6-6-6-666---------------------------------|
Db|-6-6-6-666--4-4-4-444-2-2-2-222--6-6-6-666---------------------------------|
Ab|-6-6-6-666--2-2-2-222-2-2-2-222--4-4-4-444---------------------------------|
Eb|-4-4-4-444------------0-0-0-000--------------------------------------------|
    G#m        B         E          C#m


   Bridge/ Interlude ( What ever you wanna call it )
eb|---------------------------------------------------------------------------|
Bb|---------------------------------------------------------------------------|
Gb|-4-44-x-4-x-4--2-2----------4-4-4-44-4-4-4-44------------------------------|
Db|-4-44-x-4-x-4--2-22-x-2-x-2-4-4-4-44-4-4-4-44-6-6-6-66-2-2-2-22--x2--------|
Ab|-2-22-x-2-x-2--0-02-x-2-x-2-2-2-2-22-2-2-2-22-6-6-6-66-2-2-2-22------------|
Eb|------------------0-0-0-0-0-------------------4-4-4-44-0-0-0-00------------|
    B             A  E         B                 G#m      E


   Last chorus ( do this twice as fast as you do the normal chorus )
eb|---------------------------------------------------------------------------|
Bb|---------------------------------------------------------------------------|
Gb|-4-44-44-4-44-44-----------------------------------------------------------|
Db|-4-44-44-4-44-44-6-66-666-2-22-222--x8-------------------------------------|
Ab|-2-22-22-0-00-00-6-66-666-2-22-222-----------------------------------------|
Eb|-----------------4-44-444-0-00-000-----------------------------------------|
    B       B/A     G#m      E   


  Intro for the horns ( I thought i'd add this )
eb|--2-------------2----------------2--------2--------------------------------|
Bb|-4--545-54-5p4-5--4-4-2-42----24--4--45-54-5--4-4-2-42---------------------|
Gb|--------------------------4-4----------------------------------------------|
Db|---------------------------6-----------------------------------------------|
Ab|---------------------------------------------------------------------------|
Eb|---------------------------------------------------------------------------|

Thanx Thats kind of it. Oh yeah you end the song with B power chord. The dodgy
thing about this song is it's in the key of B but you can just play B the whole
way through this song and it will sound okay.

| /  slide up
| \  slide down
| h  hammer-on
| p  pull-off
| x  Mute note
===============================================================================
Comments