Les Vulgaires Machins - Le Ciel Est Vide Chords & Tabs

 

Le Ciel Est Vide Chords & Tabs

Les Vulgaires Machins Chords & Tabs

Version: 1 Type: Tab 0 ratings
1 star 2 stars 3 stars 4 stars 5 stars
comments

Le Ciel Est Vide Tab

-------------------------------------------------------------------------------
		LE CIEL EST VIDE - Les vulgaires machins
-------------------------------------------------------------------------------

By:Frédéric Hamel (http://derfpunk.multimania.com)

  Intro:
e|---------------------------------------------------------------------------|X4
B|---------------------------------------------------------------------------|
G|-----------------------------------------------------------------------7---|
D|------------7---------------------6-4-4-6-7-X4--7-7-7-7-7-7-7-7------------|
A|---------4-5-5-4-4-4-4-4-4-4-4-7-9-7------------7-7-7-7-7-7-7-7------------|
E|-5-5-5-5----------------------------------------5-5-5-5-5-5-5-5------------|

  

e|---------------------------------------------------------------------------|
B|---------------------------------------------------------------------------|
G|---------------------------------------------------------------------------|
D|-7-7-7-7-7-7-7-7-7-7-7-7-7-7-7-7--5-5-5-2-2-2------------------------------|
A|-7-7-7-7-7-7-7-7-7-7-7-7-7-7-7-7--5-5-5-2-2-2------------------------------|
E|-5-5-5-5-5-5-5-5-5-5-5-5-5-5-5-5--3-3-3-0-0-0------------------------------|
  |-------------p.m---------------|
 
 
e|---------------------------------------------------------------------------|
B|---------------------------------------------------------------------------|
G|---------------------------------------------------------------------------|
D|-7-7-7-7-7-7-7-7-7-7-7-7-7-7-7-7--5-5-5-2-2-2------------------------------|
A|-7-7-7-7-7-7-7-7-7-7-7-7-7-7-7-7--5-5-5-2-2-2------------------------------|
E|-5-5-5-5-5-5-5-5-5-5-5-5-5-5-5-5--3-3-3-0-0-0------------------------------|
  |-------------p.m---------------|
 
e|---------------------------------------------------------------------------|X4
B|---------------------------------------------------------------------------|
G|---------------------------------------------------------------------------|
D|------------7---------------------6-4-4-6-7-X2--7-7-7-7-7-7-7-7------------|
A|---------4-5-5-4-4-4-4-4-4-4-4-7-9-7------------7-7-7-7-7-7-7-7------------|
E|-5-5-5-5----------------------------------------5-5-5-5-5-5-5-5------------|
  

e|---------------------------------------------------------------------------|
B|---------------------------------------------------------------------------|
G|---------------------------------------------------------------------------|
D|-7-7-7-7-7-7-7-7-7-7-7-7-7-7-7-7--5-5-5-2-2-2------------------------------|
A|-7-7-7-7-7-7-7-7-7-7-7-7-7-7-7-7--5-5-5-2-2-2------------------------------|
E|-5-5-5-5-5-5-5-5-5-5-5-5-5-5-5-5--3-3-3-0-0-0------------------------------|
  |-------------p.m---------------|

 
e|---------------------------------------------------------------------------|
B|---------------------------------------------------------------------------|
G|---------------------------------------------------------------------------|
D|-7-7-7-7-7-7-7-7-7-7-7-7-7-7-7-7--5-5-5-2-2-2------------------------------|
A|-7-7-7-7-7-7-7-7-7-7-7-7-7-7-7-7--5-5-5-2-2-2------------------------------|
E|-5-5-5-5-5-5-5-5-5-5-5-5-5-5-5-5--3-3-3-0-0-0------------------------------|
  |-------------p.m---------------|
[ Tab from: http://www.guitartabs.cc/tabs/l/les_vulgaires_machins/le_ciel_est_vide_tab.html ]
e|---------------------------------------------------------------------------|
B|---------------------------------------------------------------------------|
G|-14-14-14-13-13-13-14-14-14-11-11-11-13-13-13-13-13-13-14-14-14------------|
D|--x--x--x--x--x--x--x--x--x-x--x--x--x--x--x---x--x--x--x--x--x------------|
A|-12-12-12-11-11-11-12-12-12-9--9--9--11-11-11-11-11-11-12-12-12------------|
E|---------------------------------------------------------------------------|
 

e|---------------------------------------------------------------------------|
B|---------------------------------------------------------------------------|
G|-----------------------------9-----------9-9------------9-7-----------7-7--|
D|-7-----------7-7-----------7-9-----------9-9------------9-7-----------7-7--|
A|-7-----------7-7-----------7-7-7-7-7-7-7-7-7--7-7-7-7-7-7-5-5-5-5-5-5-5-5--|
E|-5-5-5-5-5-5-5-5-5-5-5-5-5-5-----------------------------------------------|
     |  p.m   |    |  p.m    |  |   p.m   |    |   p.m   |    |    p.m  |
e|---------------------------------------------------------------------------|X4
B|---------------------------------------------------------------------------|
G|-------------7-9-------------9-9-------------9-----------------------------|
D|-------------7-9-------------9-9-------------9-7---------------------------|
A|-5-5-5-5-5---5-7-7-7-7-7-7---7-7-7-7-7-7-7---7-7---------------------------|
E|-----------------------------------------------5---------------------------|
  |  p.m    |     |  p.m    |     |   p.m  |
 
e|---------------------------------------------------------------------------|
B|---------------------------------------------------------------------------|
G|---------------------------------------------------------------------------|
D|-7-7-7-7-7---7-7---7-7-7---5-5-5--2-2-2------------------------------------|
A|-7-7-7-7-7---7-7---7-7-7---5-5-5--2-2-2------------------------------------|
E|-5-5-5-5-5---5-5---5-5-5---3-3-3--0-0-0------------------------------------|
 
e|---------------------------------------------------------------------------|
B|---------------------------------------------------------------------------|
G|---------------------------------------------------------------------------|
D|-7-7-7-7-7---7-7---7-7-7---5-5-5--2-2-2-X2-7-7-7-7-7-----------------------|
A|-7-7-7-7-7---7-7---7-7-7---5-5-5--2-2-2----7-7-7-7-7-----------------------|
E|-5-5-5-5-5---5-5---5-5-5---3-3-3--0-0-0----5-5-5-5-5-----------------------|
  
e|---------------------------------------------------------------------------|
B|---------------------------------------------------------------------------|
G|---------------------------------------------------------------------------|
D|------------7---------------------6-4-4-6-7-X2-----------------------------|
A|---------4-5-5-4-4-4-4-4-4-4-4-7-9-7---------------------------------------|
E|-5-5-5-5-------------------------------------------------------------------|

e|-----------5---------------------4-2-2-4-5---X2----------------------------|
B|--------2-3-3-2-2-2-2-2-2-2-2-5-7-5----------------------------------------|
G|-3-3-3-3-------------------------------------------------------------------|
D|---------------------------------------------------------------------------|
A|---------------------------------------------------------------------------|
E|---------------------------------------------------------------------------|

e|---------------------------------------------------------------------------|
B|---------------------------------------------------------------------------|
G|---------------------------------------------------------------------------|
D|-7-7-7-7-7----7-7----7-7-7-7-----------------------------------------------|
A|-7-7-7-7-7----7-7----7-7-7-7-----------------------------------------------|
E|-5-5-5-5-5--- 5-5----5-5-5-5-----------------------------------------------|

==============================================================================
Visitez mon site web http://derfpunk.multimania.com pour trouver des tabs
d'autres groupes punk québecois.
Comments