Les Vulgaires Machins - Chanson Vendre Chords & Tabs

 

Chanson Vendre Chords & Tabs

Les Vulgaires Machins Chords & Tabs

Version: 1 Type: Tab 0 ratings
1 star 2 stars 3 stars 4 stars 5 stars
comments

Chanson Vendre Tab

Chanson à Vendre
des Vulgaires Machins
pour guit
tabbler par M-A Moisan
email: bestmarc2000@hotmail.com

Intro (2x)
e-|-----------------------------------------------------------------------------|
B-|-----------------------------------------------------------------------------|
G-|-----------------------------------------------------------------------------|
D-|-----------------------------------------------------------------------------|
A-|------------7-7-10-10-9-9-7-7-6-6-----7-7-6-6-7-7---------------------10-10--|
E-|--8-8-10-10-----------------------7-7-------------7-7-8-8-10-10-12-12--------|

Les couplets ce font avec ces trois accords là: (les accords sont "muter" la 
plupart du temps)
e-|-----------|
B-|-----------|
G-|--5--4-----|
D-|--5--4--2--|
A-|--3--2--2--|
E-|-----------| (pour le beat et le nbr de coup de pick écouter la toune)

Entre le premier et le couplet le "bridge" resemble à ça:

(2x)
e-|---------------|
B-|---------------|
G-|---------------|
D-|---------------|
A-|--3-2-3-2-3/7--|
E-|---------------|

Le couplet...

Le "bridge" qui suit fait:
[ Tab from: http://www.guitartabs.cc/tabs/l/les_vulgaires_machins/chanson_vendre_tab.html ]
(2x)
e-|-----------------|
B-|-----------------|
G-|--5--4--5--4--9--|
D-|--5--4--5--4--9--|
A-|--3--2--3--2--7--|
E-|-----------------|

Après c'est le couplet avec les accords du couplet.

Ensuite c'est le "bridge":

(2x)
e-|-----------------|
B-|-----------------|
G-|--5--4--5--4--9--|
D-|--5--4--5--4--9--|
A-|--3--2--3--2--7--|
E-|-----------------|

Suivit du "Bridge":

(2x)
e-|---------------|
B-|---------------|
G-|---------------|
D-|---------------|
A-|--3-2-3-2-3/7--|
E-|---------------|

Suivit du riff suivant:

(4x)
e-|-----------------------------------------------------------------------------|
B-|-----------------------------------------------------------------------------|
G-|-----------------------------------------------------------------------------|
D-|-----------------------------------------------------------------------------|
A-|------------7-7-10-10-9-9-7-7-6-6-----7-7-6-6-7-7---------------------10-10--|
E-|--8-8-10-10-----------------------7-7-------------7-7-8-8-10-10-12-12--------|

Après c'est le couplet avec les accords du couplet...

Ensuite c'est:

(4x)
e-|-----------------|
B-|-----------------|
G-|--5--4--5--4--9--|
D-|--5--4--5--4--9--|
A-|--3--2--3--2--7--|
E-|-----------------|

Fin

Si y'a des questions e-mailer moi...

Comments