Les Sheriff - Jouer Avec Le Feu Chords & Tabs

 

Jouer Avec Le Feu Chords & Tabs

Les Sheriff Chords & Tabs

Version: 1 Type: Chords 0 ratings
1 star 2 stars 3 stars 4 stars 5 stars
comments

Jouer Avec Le Feu Chords

   
LES SHERIFF – Jouer avec le feu

Les Sheriff are a french punk band formed in Montpellier (south of France) in 1984. 
Their songs are very fast, short and heavy in a Ramones/Dickies style. 
They sing in french but lyrics are very easy to sing even for non-french!

http://www.deezer.com/artist/5459
http://www.lessheriff.fr/


Thème intro :
G# G G# D# D B   (X2) 
e---------------------------------------------------------------------------|
b---------------------------------------------------------------------------|
G------------------8-8-8-8-7-8-8-9-----------------8-8-8-8-7-8-8-9----------|
D--6-6-6-6-5-6-6-6-8-8-8-8-7-8-8-9-6-6-6-6-5-6-6-6-8-8-8-8-7-8-8-9----------|
A—-6-6-6-6-5-6-6-6-6-6-6-6-5-6-6-9-6-6-6-6-5-6-6-6-6-6-6-6-5-6-6-9----------|
E--4-4-4-4-3-4-4-4---------------7-4-4-4-4-3-4-4-4--------------------------|
                    

Verse 1
G#                 B      F#      G#
Le sang espagnol qui est dans mes veines
B            F#            G#
Me pousse jusqu’aux extrêmes
B            F#            G#
Dans l’amour et dans la haine
B            F#            D#
Et jusqu’au bout de moi même

G#                B      F#      G#
Le sang français qui circule en moi
B       F#            G#
Me conseille malgré moi
B       F#            G#
De sauver les apparences
B       F#            D#
Et me dicte la prudence

C#                        E        
Alors lequel des deux choisir ?
A
Celui qui va trop loin ?
G#
Celui qui me retient ?

Chorus  X4
 E                 B
J’aime jouer avec le feu
 C#                 G#
Mais j’aime pas me brûler

Thème intro :
G# G G# D# D B    (X2) 
[ Tab from: http://www.guitartabs.cc/tabs/l/les_sheriff/jouer_avec_le_feu_crd.html ]
Verse 2
G#              B      F#      G#
J’adore les voitures hyper rapides
B         F#            G#
Et tous les petits bolides
B           F#            G#
Qui me font prendre des risques
B      F#           D#
Et monter l’adrénaline

G#              B      F#      G#
J’adore dormir pendant la journée
B       F#       G#
Et regarder la télé
B             F#            G#
C’est sûr c’est moins dangereux
B           F#             D#
Mais ça fait vivre plus vieux

Bridge
C#                     E        
Alors que faire de ma vie ?
A
La vivre à cent à l’heure ?
G#
Eviter les malheurs ?

Chorus  X4
E                 B
J’aime jouer avec le feu
C#                 G#
Mais j’aime pas me brûler

Solo :

e------------------------------------------------------|
b------------------------------------------------------|
G------------------------------------------------------|
D---------------4-5-6-------------4-5------------------|
A--------4-6--6------------4-6--6------6-5-6-6---------|
E-4--4-7---------------4-7-----------------------------|

Bridge
C#                    E        
Alors que faire de ma vie ?
A
La vivre à cent à l’heure ?
G#
Eviter les malheurs ?

Chorus  X2 à capella
J’aime jouer avec le feu
Mais j’aime pas me brûler

Chorus  X2 
E                 B
J’aime jouer avec le feu
C#                 G#
Mais j’aime pas me brûler

E                 B
J’aime jouer avec le feu (JOUER AVEC LE FEU ! !)
C#                 G#
Mais j’aime pas me brûler (JOUER AVEC LE FEU ! !)
E          B
Avec le feu (JOUER AVEC LE FEU ! !)
C#         G#
Avec le feu (JOUER AVEC LE FEU ! !)

AVEC LE FEU !

Final Solo

e----------------------------------------------------------------------|---|
b----------------------------------------------------------------------|---|
G----------------------------------------------------------------------|---|
D-----------------------------------------------------6-5-4-3-6-5-4-3-6|-6-|
A—7-7-7-7-6-6-6-6-4-4-4-4----4-6-7-7-7-7-6-6-6-6-4-4-4-----------------|-6-|
E------------------------7-7-------------------------------------------|-4-|
Comments