Les Savy Fav - Who Rocks The Party Chords & Tabs

 

Who Rocks The Party Chords & Tabs

Les Savy Fav Chords & Tabs

Version: 1 Type: Bass Tab 0 ratings
1 star 2 stars 3 stars 4 stars 5 stars
comments

Who Rocks The Party Bass Tab

Band: Les Savy Fav
Song: Who Rocks The Party?
Album: The Cat And The Cobra

lovely band. lovely song.

Bass Intro
X4
G--------------------|
D--------------------|
A--------------------|
E--2-/-7-/-8~--8\----|

X1
G----------------------------|
D----------------------------|
A----------------------------|
E--2.--------2.--------2-----|

[ Tab from: http://www.guitartabs.cc/tabs/l/les_savy_fav/who_rocks_the_party_btab.html ]
Part 1
X4
G------------------------------|
D------------------------------|
A------------------------------|
E--2-/-7-/8~--7--8-7-8-7-------|


Part 2
X4
G--------------------|
D--------------------|
A--------------------|
E--2-/-7-/-8~--8\----|

X1
G--------------------|
D--------------------|
A--------------------|
E--<2>---------------|


Part1 X2

Rest

Part1 X2

Part 2

Rest

End
G---------------|
D---------------|
A---------------|
E--<2>----------|

tom

bassmonkey24@hotmail.com
Comments