Les Savy Fav - Weve Got Boxes Chords & Tabs

 

Weve Got Boxes Chords & Tabs

Les Savy Fav Chords & Tabs

Version: 1 Type: Bass Tab 0 ratings
1 star 2 stars 3 stars 4 stars 5 stars
comments

Weve Got Boxes Bass Tab

INTRO/VERSE/CORUS :01

G-------------------------------------------------|
D-------------------------------------------------|
A-------------------------------------------------|
E---0-0---33/7 777/8-8---10-10-10-10-10-10--------|   x13

BRIDGE 1:00

G--------------------------------------------------|
D--------------------------------------------------|
A--------------------------------------------------|
E---10(x8)-11(x8)-12(x8)-13(x9)--------------------|  x1

G--------------------------------------------------|
D--------------------------------------------------|
A--------------------------------1212121212--------|
E---10(x8)-11(x8)-12(x8)-13131313------------------|  x3
[ Tab from: http://www.guitartabs.cc/tabs/l/les_savy_fav/weve_got_boxes_btab.html ]
BACK TO INTRO/VERSO/CORUS 1:38 x4

REST 1:56

BACK TO INTRO/VERSO/CORUS 2:06 x6


OUTRO 2:33

PART ONE

G-----------------------|
D-----------------------|
A-----------------------|
E---5-5-3---8-10-10-8---| x8

THEN IT SWITCHES AT 3:03

PART TWO

G-----------------------|
D-----------------------|
E-----------------------|
A--5-5-3-3--------------| x7

THEN IT SWITCHES AT 3:30 to PART ONE x3

THEN IT SWITCHES AT 3:41 to PART TWO x4

well, i've been looking all over the internet for les savy fav bass tabs and couldn't 
them anywhere so i decided to start tabbing them out myself. here the first of many! first 
i ever tabbed out as well, hope it works... enjoy and feel free to tab out some of your own les savy fav!

s. simms
Comments