Les Savy Fav - Intro Chords & Tabs

 

Intro Chords & Tabs

Les Savy Fav Chords & Tabs

Version: 1 Type: Bass Tab 0 ratings
1 star 2 stars 3 stars 4 stars 5 stars
comments

Intro Bass Tab

Artist: Les Savy Fav
Song  : Intro
Album : 3/5
Track : [1]

Verse (00:01)

G--------------------------------------------|
D--------------------------------------------|
A--7-75-55-55220-----------------------------|
E--------------------------------------------| x10

Corus (00:54)

G--------------------------------------------|
D--------------------------------------------|
A--------------------------------------------|
E--3333333333333333-5555555555555555---------| x2
[ Tab from: http://www.guitartabs.cc/tabs/l/les_savy_fav/intro_btab.html ]
Verse (01:14) x8

Corus (01:57) x2

Bridge (02:17)

G--------------------------------------------|
D--------------------------------------------|
A--7~-----5~---------------------------------|
E----------------5~-----5~-------------------| x1
Corus (02:38) x2

Outro for Intro (02:59)

G--------------------------------------------|
D--------------------------------------------|
A--7~----------------------------------------|
E--------------------------------------------| x1

s.simms
Comments