Les Savy Fav - Ic Timer Chords & Tabs

 

Ic Timer Chords & Tabs

Les Savy Fav Chords & Tabs

Version: 1 Type: Bass Tab 0 ratings
1 star 2 stars 3 stars 4 stars 5 stars
comments

Ic Timer Bass Tab

Band: Les Savy Fav
Song: IC Timer
Rome Written Upside Down EP


Part 1 x 4 (second time do not play the last two notes)
G-------------------------------------------------------------------------|
D-----4-4---4-4---5-5---5-5------------------5-5---5-5--------------------|
A-------------------------------6-6---6-6---------------------------------|
E-------------------------------------------------------------------------|

Part 2 x 4 (fourth time perform a slide up and down the neck on the last note)
G-------------------------------------------------------------------------|
D-----4-4---4-4---5-5---5-5-----------------------------------------------|
A-----------------------------6-6---6-6-----------------------------------|
E--------------------------------------------3-3---3-3--------------------|

Guitar and Drum Break

Part 2 x 6
[ Tab from: http://www.guitartabs.cc/tabs/l/les_savy_fav/ic_timer_btab.html ]
Guitar and Drum Break

Link
G------------------------------------|
D------------------------------------|
A------------------------------------|
E-----1-1-1-1-/-3-3-3-3--------------|

Lovely Riff x 4
G--------------------------------------------------------------------|
D--------------------------------------------------------------------|
A---5--5-5--5-3-1--1-1--1--------------------------------------------|
E--------------------------1--1-1--1-3-3-5-5-------------------------|

Even Lovelier Riff x 4
G-----------------------------------------------------------------------|
D-----------------------------------------------------------------------|
A---5--5-5--5-3-1--1-1--1---------------4-4-4-4-4-4-4-4-----------------|
E---------------------------3--3--1--1----------------------------------|

Finish on D


Tom

Bassmonkey24@hotmail.com
Comments