Les Savy Fav - Disco Drive Chords & Tabs

 

Disco Drive Chords & Tabs

Les Savy Fav Chords & Tabs

Version: 1 Type: Bass Tab 0 ratings
1 star 2 stars 3 stars 4 stars 5 stars
comments

Disco Drive Bass Tab

   
Artist: Les Savy Fav
Song: Disco Drive
CD: Go Forth

Standard tuning E,A,D,G

Intro (0:06)

E-----------------------------|
A--7777-9999-5555-4444--------|
D-----------------------------|
G-----------------------------| x6

Corus (0:44)

E--77-------------------------|
A-----1010-77-55--------------|
D-----------------------------|
G-----------------------------| x4

Verse (0:59)

E--777777777----------------------|
A------------7777-9999-5555-4444--|
D---------------------------------|
G---------------------------------| x6

Corus (1:41)x3

End of corus fill (1:52)
[ Tab from: http://www.guitartabs.cc/tabs/l/les_savy_fav/disco_drive_btab.html ]
E------------7--------------------|
A--555555-77----------------------|
D---------------------------------|
G---------------------------------|

Bridge (1:55)

E--777777777777777777777777777--------|
A------------------------------55775--|
D-------------------------------------|
G-------------------------------------| x13

Ourto (3:22)

E--77777777-------------------------------------|
A-----------1010101010101010-77777777-55555555--|
D-----------------------------------------------|
G-----------------------------------------------| x4

End of ourto fill (3:45)

E---------------7~-----|
A--5(x16)-7(x16)-------|
D----------------------|
G----------------------|

tabbed by s.simms
Comments