Les Sales Majestes - Sauf Qui Peut Chords & Tabs

 

Sauf Qui Peut Chords & Tabs

Les Sales Majestes Chords & Tabs

Version: 1 Type: Tab 0 ratings
1 star 2 stars 3 stars 4 stars 5 stars
comments

Sauf Qui Peut Tab

Intro

E|---------------------------|---------------------------------| |
B|---------------------------|---------------------------------| |
G|---------------------------|---------------------------------| |
D|--------------8---8----8---|-----------------6---6----6------| |
A|-8---8----8---6---6----6---|-6---6----6------4---4----4------| |
E|-6---6----6----------------|-4---4----4----------------------| |
                                                                 | x2
E|---------------------------|---------------------------------| |
B|---------------------------|---------------------------------| |
G|---------------------------|---------------------------------| |
D|--------------8---8----8---|---------------------------------| |
A|-8---8----8---6---6----6---|-6---6---6---6---6---6---6---6---| |
E|-6---6----6----------------|-4---4---4---4---4---4---4---4---| |

Verse

E|---------------------|---------------------|---------------------|---------------------|
B|---------------------|---------------------|---------------------|---------------------|
G|---------------------|---------------------|---------------------|---------------------|
D|-----------8---------|-----------6---------|-----------8---------|---------------------|
A|-8---------6---------|-6---------4---------|-8---------6---------|-6---------6---------|
E|-6-------------------|-4-------------------|-6-------------------|-4---------4---------|


E|---------------------|---------------------|---------------------|---------------------|
B|---------------------|---------------------|---------------------|---------------------|
G|---------------------|---------------------|---------------------|---------------------|
D|-----------8---------|-----------6---------|-----------8---------|-----------6---------|
A|-8---------6---------|-6---------4---------|-8---------6---------|-6---------4---------|
E|-6-------------------|-4-------------------|-6-------------------|-4-------------------|


E|---------------------|
B|---------------------|
G|---------------------|
D|-----------6---------|
A|-6---------4---------|
E|-4-------------------|


Chorus

E|-------------|---------------------------------|
B|-------------|---------------------------------|
G|-------------|---------------------------------|
D|-------8-----|-6---6---6---6---6---6---6---6---|
A|-8-----6-----|-4---4---4---4---4---4---4---4---| x4
E|-6-----------|---------------------------------|


Verse


Chorus 


Solo
        
        Rhythm: 
        
            Verse + Chorus + 

E|---------------------------------|
B|---------------------------------|
G|---------------------------------|
D|-6---6---6---6---6---6---6---6---|
A|-4---4---4---4---4---4---4---4---|
E|---------------------------------|


    Solo:
    

E|---------------------------------|------------------------------|
B|---------------------------------|-------------------------9----|
G|-----------------10----------10--|-----------------10--10-------|
D|-8---8---8---8-------8---8-------|-8---8---8---8----------------|
A|---------------------------------|------------------------------|
E|---------------------------------|------------------------------|

[ Tab from: http://www.guitartabs.cc/tabs/l/les_sales_majestes/sauf_qui_peut_tab.html ]
E|---------------------------------|---------------------------------|
B|---------------------------------|---------------------------------|
G|-----------------10----------10--|-----------------10--9---8-------|
D|-8---8---8---8-------8---8-------|-8---8---8---8---------------11--|
A|---------------------------------|---------------------------------|
E|---------------------------------|---------------------------------|


E|---------------------------------|------------------------------|
B|---------------------------------|-------------------------9----|
G|-----------------10----------10--|-----------------10--10-------|
D|-8---8---8---8-------8---8-------|-8---8---8---8----------------|
A|---------------------------------|------------------------------|
E|---------------------------------|------------------------------|


E|---------------------------|------------------------------|-----------------------|
B|-11---11--11--11b--11--9---|-11---11--9-------------------|-9---------------------|
G|---------------------------|--------------10--9---8-------|-------10--9---8-------|
D|---------------------------|--------------------------11--|-------------------11--|
A|---------------------------|------------------------------|-----------------------|
E|---------------------------|------------------------------|-----------------------|


E|-13--13--13--13--15--15--15--15--|-16--16--16--16--15--16--15--15--|
B|-14--14--14--14--14--14--14--14--|-14--14--14--14--14--14--14--14--|
G|---------------------------------|---------------------------------|
D|---------------------------------|---------------------------------|
A|---------------------------------|---------------------------------|
E|---------------------------------|---------------------------------|

E|-13--13--13--13--15--15--15--15--|-16--16--16--16--15--16--18--18--|
B|-14--14--14--14--14--14--14--14--|-14--14--14--14--14--14--14--14--|
G|---------------------------------|---------------------------------|
D|---------------------------------|---------------------------------|
A|---------------------------------|---------------------------------|
E|---------------------------------|---------------------------------|

E|-13--13--13--13--15--15--15--15--|-16--16--16--16--15--16--15--15--|
B|-14--14--14--14--14--14--14--14--|-14--14--14--14--14--14--14--14--|
G|---------------------------------|---------------------------------|
D|---------------------------------|---------------------------------|
A|---------------------------------|---------------------------------|
E|---------------------------------|---------------------------------|


E|--------------------|-----------------------|--------------------|
B|--------------------|-----------------------|--------------------|
G|-8b----8b---8---6---|-8-----6---------------|-6-------------8----|
D|--------------------|-----------8---6---8---|-------8---6--------|
A|--------------------|-----------------------|--------------------|
E|--------------------|-----------------------|--------------------|


Verse


Chorus


End

E|---------------------------------|-------------------------------------------------|
B|---------------------------------|-------------------------------------------------|
G|---------------------------------|-------------------------------------------------|
D|-6---6---6---6---6---6---6---6---|-------------------------------------------------|
A|-4---4---4---4---4---4---4---4---|-8-----8--8--------------------------------------|
E|---------------------------------|-6-----6--6--------------------------------------|



Tab by hiphop :D
Comments