Les Claypool And The Holy Mackerel - Seinfeld Theme Chords & Tabs

 

Seinfeld Theme Chords & Tabs

Les Claypool And The Holy Mackerel Chords & Tabs

Version: 1 Type: Bass Tab 0 ratings
1 star 2 stars 3 stars 4 stars 5 stars
comments

Seinfeld Theme Bass Tab

   
Artist: Les Claypool
Song: Seinfeld Theme
Tabber: Tyler B

s= Slap
p= Pop
h= Hammer on
~= Let ring
b= Bend

Intro x1

G:0h7-0h4----------------------------|
D:--------7-5------------------------|
A:------------0h5-0h2----------------|
E:--------------------5-3------------|
  p   p   p p s   s   s s

Verse 1
G:--------------------------------------|
D:----------------------2------------7~-|
A:------25------------------------------|
E:0--0h4----455--3-2-1-0-0-22-3-4-5-----|
  s  s  ss  sss  s s s sps ss s s s  p

G:--------------------------------------|
D:----------------------2------------7~-|
A:------25------------------------------|
E:0--0h4----455--3-2-1-0-0-22-3-4-5-----|
  s  s  ss  sss  s s s sps ss s s s  p
[ Tab from: http://www.guitartabs.cc/tabs/l/les_claypool_and_the_holy_mackerel/seinfeld_theme_btab.html ]
G:---------------------------------------|
D:------1-------------3--------3~--------|
A:----03--0-11-0------------01-----------|
E:1--1-----------4-3-1-1-334-------------|
  s  sssp s ss s s s sps sssss p

Intro x1

G:0h7-0h4----------------------------|
D:--------7-5------------------------|
A:------------0h5-0h2----------------|
E:--------------------5-3------------|
  p   p   p p s   s   s s

Verse 2

G:---------------------------------------------|
D:-------2--------------4-------------b4~------|
A:----14----1-22-5-------------b1-b2-----------|
E:2-2--------------4-3-2-2-445-----------------|
  s s ss p  s ss s s s sps sss  s  s   p

G:--------|
D:-2------|
A:---4-2--|
E:--------|
   p s s

G:----------------------------------------------|
D:----------------------2------------b3~--------|
A:------25--------------------------------------|
E:0--0h4----455--3-2-1-0-0-22-3-4-5--------3345-|
  s  s  ss  sss  s s s sps ss s s s   p    ssss

Thats it, I think its pretty much all correct however, if u find any mistakes or have 
questions feel free to post them.
Comments