Les Claypool And The Holy Mackerel - George E Porge Chords & Tabs

 

George E Porge Chords & Tabs

Les Claypool And The Holy Mackerel Chords & Tabs

Version: 1 Type: Bass Tab 0 ratings
1 star 2 stars 3 stars 4 stars 5 stars
comments

George E Porge Bass Tab

   
Les Claypool and the Holy Mackerel
presents Highball with the Devil

“George E. Porge”

tabbed by Boyd

Standard Tuning - E A D G

its about right, if you figure it all out email me @ bradleyd@aol.com
or aim me at boydmastaflash

Intro

G|------------------------|----------------------------
D|------------------------|----------------------------
A|--7-7--7-5--------------|--7-7--7-5--------------3-5-
E|-----------7-5-3-3--2-3-|-----------7-5-3-3--2-3-----

G|------------------------|----------------------------
D|------------------------|----------------------------
A|--7-7--7-5--------------|--7-7--7-5------7-7--7-5----
E|-----------7-5-3-3--2-3-|-----------7-5-----------7--

Verse 1
			x3
G|--------------------------|
D|*------------------------*|
A|*--7-7--7-5--------------*|  on the fourth time...
E|------------7-5-3-3--2-3--|
						
G|----------------------------------|-------------
D|----------------------------------|-------------
A|--7-7--7-5------------------------|-------------
E|-----------7-5-3-3--2-3--3-3--2-3-|---3-3--2-3--

Verse 2

G|------------------------|---------------------------|
D|------------------------|-------------------5-5-5-5-|
A|--7-7--7-5--------------|--7-7--7-5-----------------|
E|-----------7-5-3-3--2-3-|-----------7-5-3-3---------|
[ Tab from: http://www.guitartabs.cc/tabs/l/les_claypool_and_the_holy_mackerel/george_e_porge_btab.html ]
G|------------------------|---------------------------|
D|------------------------|---------------------5-7---|
A|--7-7--7-5--------------|--7-7--7-5---------5-----5-|
E|-----------7-5-3-3--2-3-|-----------7-5-3-3---------|

Verse 3
			x3
G|--------------------------|
D|*------------------------*|
A|*--7-7--7-5--------------*|  on the fourth time...
E|------------7-5-3-3--2-3--|

G|-----------------------------
D|-----------------------------
A|--7-7--7-5------7-7--7-5-----
E|-------------------------7-5-

Guitar Solo

G|------------------------|
D|------------------------|
A|--7-7--7-5--------------|  
E|-----------7-5-3-3--2-3-|

G|-----------------------------|
D|-----------------------------|
A|--7-7--7-5------------5---5--|  
E|-----------7-5-3-3--3---2----|

G|------------------------|
D|------------------------|
A|--7-7--7-5--------------|  
E|-----------7-5-3-3--2-3-|

G|------------------------------------------------------|
D|--------------------3/5-5-5-5-----5-5-5-5-----5-5-5-5-|
A|--7-7--7-5--------------------------------------------|
E|-----------7-5-3-3------------3-3---------3-3---------|

G|-------------------------|
D|-------------------------|
A|-9-9-9-8-8-8-7-7-7-5-5-5-|
E|-------------------------|

G|------------------------|
D|------------------------|
A|--7-7--7-5--------------|  
E|-----------7-5-3-3--2-3-|

G|-----------------------------|
D|-----------------------------|
A|--7-7--7-5------------5---5--|  
E|-----------7-5-3-3--3---2----|

G|------------------------|
D|------------------------|
A|--7-7--7-5--------------|  
E|-----------7-5-3-3--2-3-|

G|-----------------------------|
D|---------5------3------3-----|
A|--7-7--7---7------3------3---|  
Comments