Les Claypool And The Holy Mackerel - Barrington Hall Chords & Tabs

 

Barrington Hall Chords & Tabs

Les Claypool And The Holy Mackerel Chords & Tabs

Version: 1 Type: Bass Tab 0 ratings
1 star 2 stars 3 stars 4 stars 5 stars
comments

Barrington Hall Bass Tab

   
-------------------------------------------------------------------------------
		  Barrington Hall - Les Claypool Frog Brigade
-------------------------------------------------------------------------------
Tabbed By : Juan
e-mail: LoOz23@aol.com

Tuning:standard

Hey go easy on my it's my first tab every body

Intro/ bridge
G|------------------------------------------------------------------------|
D|-------7-h8-h9-7-h8-h9--------------------------------------------------|
A|--------------------------7-h8-h9-7-h8-h9-------------------------------|
E|7-7-7-------------------------------------------------------------------|
[ Tab from: http://www.guitartabs.cc/tabs/l/les_claypool_and_the_holy_mackerel/barrington_hall_btab.html ]
G|------------------------------------------------------------------------|
D|7-h8-h9-7-h8-h9---------------------------------------------------------|
A|-------------------7-h8-h9-7-h8-h9--------------------------------------|
E|------------------------------------------------------------------------|
Variation to intro
G|------------------------------------------------------------------------|
D|--9--9------7-h8-h9-----------------------------------------------------|
A|----------------------7-h8-h9-------------------------------------------|
E|7---7--7----------------------------------------------------------------|

Verse(played through most of the song)
G|------------------------------------------------------------------------|
D|------------------------------------------------------------------------|
A|---55-77---------55-75--------------------------------------------------|
E|77--------55--77-------5------------------------------------------------|


| /  slide up
| \  slide down
| h  hammer-on
| p  pull-off
| ~  vibrato
| +  harmonic
| x  Mute note
=======================================================================
Comments