Leonard Cohen - Master Song Chords & Tabs

 

Master Song Chords & Tabs

Leonard Cohen Chords & Tabs

Version: 1 Type: Tab 0 ratings
1 star 2 stars 3 stars 4 stars 5 stars
comments

Master Song Tab

   
Master Song
Leonard Cohen

   CAPO 3RD FRET

3/4

  Gm                                                     A#
|------------------|------------------|------------------|------------------|
|-------------0----|-------------0----|-------------0----|-------------0----|
|-------0--------0-|-------0--------0-|-------0--------0-|-------0--------0-|
|----2-----2-------|----2-----2-------|----0-----0-------|----0-----0-------|
|-2----------------|-2----------------|------------------|------------------|
|------------------|------------------|-3----------------|-3----------------|


  Gm                                                     A#
|------------------|------------------|------------------|------------------|
|-------------0----|-------------0----|-------------0----|-------------0----|
|-------0--------0-|-------0--------0-|-------0--------0-|-------0--------0-|
|----2-----2-------|----2-----2-------|----0-----0-------|----0-----0-------|
|-2----------------|-2----------------|------------------|------------------|
|------------------|------------------|-3----------------|-3----------------|


  G#                                                     Gm
|------------------|------------------|------------------|------------------|
|-------------1----|-------------1----|-------------0----|-------------0----|
|-------2--------2-|-------2--------2-|-------0--------0-|-------0--------0-|
|----3-----3-------|----3-----3-------|----2-----2-------|----2-----2-------|
|------------------|------------------|------------------|------------------|
|-1----------------|-1----------------|-0----------------|-0----------------|


  G#                                                     Gm
|------------------|------------------|------------------|------------------|
|-------------1----|-------------1----|-------------0----|-------------0----|
|-------2--------2-|-------2--------2-|-------0--------0-|-------0--------0-|
|----3-----3-------|----3-----3-------|----2-----2-------|----2-----2-------|
|------------------|------------------|------------------|------------------|
|-1----------------|-1----------------|-0----------------|-0----------------|


  G#                                                     Gm
|------------------|------------------|------------------|------------------|
|-------------1----|-------------1----|-------------0----|-------------0----|
|-------2--------2-|-------2--------2-|-------0--------0-|-------0--------0-|
|----3-----3-------|----3-----3-------|----2-----2-------|----2-----2-------|
|------------------|------------------|------------------|------------------|
|-1----------------|-1----------------|-0----------------|-0----------------|



  G#                                                     Gm
|------------------|------------------|------------------|------------------|
|-------------1----|-------------1----|-------------0----|-------------0----|
|-------2--------2-|-------2--------2-|-------0--------0-|-------0--------0-|
|----3-----3-------|----3-----3-------|----2-----2-------|----2-----2-------|
|------------------|------------------|------------------|------------------|
|-1----------------|-1----------------|-0----------------|-0----------------|



[ Tab from: http://www.guitartabs.cc/tabs/l/leonard_cohen/master_song_tab.html ]
  G#                                                     Cm
|------------------|------------------|------------------|------------------|
|-------------1----|-------------1----|-------------1----|-------------1----|
|-------2--------2-|-------2--------2-|-------2--------2-|-------2--------2-|
|----3-----3-------|----3-----3-------|----2-----2-------|----2-----2-------|
|------------------|------------------|-0----------------|-0----------------|
|-1----------------|-1----------------|------------------|------------------|



  D#                                                     F
|------------------|------------------|-------------2----|-------------2----|
|-------------1----|-------------1----|-------3--------3-|-------3--------3-|
|-------0--------0-|-------0--------0-|----2-----2-------|----2-----2-------|
|----2-----2-------|----2-----2-------|-0----------------|-0----------------|
|-3----------------|-3----------------|------------------|------------------|
|------------------|------------------|------------------|------------------|



  A#                              Dm/A                   A# 
      Dm/A
|------------------|------------------|------------------|------------------|
|-------------0----|-------------0----|-------------0----|-------------0----|
|-------0--------0-|-------0--------0-|-------0--------0-|-------0--------0-|
|----0-----0-------|----0-----0-------|----0-----0-------|----0-----0-------|
|------------------|------------------|------------------|------------------|
|-3----------------|-2----------------|-3----------------|-2----------------|


  D# 

|------------------|------------------|------------------|------------------|
|-------------1----|-------------1----|-------------1----|-------------1----|
|-------0--------0-|-------0--------0-|-------0--------0-|-------0--------0-|
|----2-----2-------|----2-----2-------|----2-----2-------|----2-----2-------|
|-3----------------|-3----------------|-3----------------|-3----------------|
|------------------|------------------|------------------|------------------|



  D7
|------------------|------------------|
|-------------0----|-------------0----|
|-------2--------2-|-------2--------2-|
|----1-----1-------|----1-----1-------|
|-2----------------|-2----------------|
|------------------|------------------|




  Two alternate strumming. It changes during the song
  Play the whole verse this way (using the chords above)

1)

  Gm                                                     A#
|------------------|------------------|------------------|------------------|
|-------0-----0----|-------0-----0----|-------0-----0----|-------0-----0----|
|-------0-----0----|-------0-----0----|-------0-----0----|-------0-----0----|
|----2-----2-----2-|----2-----2-----2-|----0-----0-----0-|----0-----0-----0-|
|-2----------------|-2----------------|------------------|------------------|
|------------------|------------------|-3----------------|-3----------------|...




2)

  Gm                                                     A# 

|------------------|------------------|------------------|------------------|
|-------0--------0-|-------0--------0-|-------0--------0-|-------0--------0-|
|-------0--------0-|-------0--------0-|-------0--------0-|-------0--------0-|
|----2--------2----|----2--------2----|----0--------0----|----0--------0----|
|-2--------2-------|-2--------2-------|------------------|------------------|
|------------------|------------------|-3--------3-------|-3--------3-------|...
Comments