Lenny Kravitz - Let Love Rule Chords & Tabs

 

Let Love Rule Chords & Tabs

Lenny Kravitz Chords & Tabs

Version: 1 Type: Bass Tab 0 ratings
1 star 2 stars 3 stars 4 stars 5 stars
comments

Let Love Rule Bass Tab

   
FTH80: E A D G; Generated by Fast Tab, do not erase
====================
>From            : LET LOVE RULE
Artist          : Lenny KRAVITZ
Bass Performance: Lenny KRAVITZ
Comments:       : Tabbed by Jérôme FOULET (jerome.foulet@free.fr)
---
Strings: E ,A ,D ,G 
Symbols explanations:
  H: hammer on  P: pull off
  +: slap       .: pop
  \: slide up   /: slide down
  --x~~x~~x: triplets
====================


Title : "LET LOVE RULE" (Lenny KRAVITZ) - From the album : "LET LOVE RULE"


Verse 1

G -------------------------------------------------------------------------------
D -------------------------------------------------------------------------------
A --7-----5--7--------------------------8--9-10----10--9--8--7-------------------
E -----------------0--0--1--2--3----10-----------------------------3--0-----0--0-


G -------------------------------------------------------------------------------
D --------------------------------------------------------------------5--5--7--7-
A -----------------8--9-10----10-11-12--------4--4--5--5--6--6--7--7-------------
E --1--2--3----10--------------------------5-------------------------------------


G ----------------------------------
D -10-------------------------------
A -----------7--7--8--8--9--9-10\---
E -------10-------------------------

Chorus 1 : repeat X 2

G -------------------------------------------------------------------------------
D -------------------------------------------------------------------------------
A --------------------------------------------------3--3--3--3--3--3-------------
E --3--3--3--3--3--3--3--3--5--5--5--5--5--5--5--5--------------------0--3-------


G ---------------------
D ---------------------
A ---------------------
E -3-33-3333--3/15\----

Verse 2

G -------------------------------------------------------------------------------
D -------------------------------------------------------------------------------
A --7-----5--7--------------------------8--9-10----10--9--8--7-------------------
E -----------------0--0--1--2--3----10-----------------------------3--0-----0--0-


G -------------------------------------------------------------------------------
D -------------------------------------------------------------------------------
A --------------------8--9-10---/-9-10-10--9--8--7-----5--7----------------------
E --1--2--3----10-10--------------------------------------------0--0--1--2--3----


G -------------------------------------------------------12-12-14----------------
D ----------------------------------11-12-12-13-13-14-14-------------------------
A -----8--9-10---/\--10-11-12----12----------------------------------------------
E -10--------------------------------------------------------------0--3-33--5555-


G ----------
D ----------
A ----------
E -6666-7\--

Chorus 2 : repeat X 2

G -------------------------------------------------------------------------------
D -------------------------------------------------------------------------------
A --------------------------------------------------3--3--3--3--3--3-------------
E --3--3--3--3--3--3--3--3--5--5--5--5--5--5--5--5--------------------0--3-----3-


G ---------------------
D ---------------------
A ---------------------
E -3-33-3333--3/15\----

Sax Solo
[ Tab from: http://www.guitartabs.cc/tabs/l/lenny_kravitz/let_love_rule_btab.html ]
G --------------------------------------------------------------------------------
D --------------------------------------------------------------------------------
A --7-----5--7--------------------------8--9-10----11----12----13----14\----------
E -----------------0--0--1--2--3----10------------------------------------0-----3-


G -------------------------------------------------------------------------------
D -------------------------------------------------------------------------------
A --------------------------------8--9-10----10--9--8--7-----5--7----------------
E --3--0-----0--0--1--2--3----10--------------------------------------0--0--1--2-


G -------------------------------------------------------------12-14------/17----
D -------------------------------------11-11-12-12-13-13-14-14-------------------
A -----------8--9-10-/\-10-11-12----12-------------------------------------------
E --3----10-----------------------------------------------------------0----------


G -------------------------------------------------------------------------------
D -------------------------------------------------------------------------------
A -------------------------------------------------------------------------------
E --0--0--1--1--2--2--3\---------------------------------------------------------

Chorus 3 : repeat X 2

G -------------------------------------------------------------------------------
D -------------------------------------------------------------------------------
A --------------------------------------------------3--3--3--3--3--3-------------
E --3--3--3--3--3--3--3--3--5--5--5--5--5--5--5--5--------------------0--3-----3-

Ending 1

G ---------------------
D ---------------------
A ---------------------
E -3-33-3333--3/15\----

Ending 2

G -----------------------------
D -----------------------------
A -----3--3--4--4--5--5--6-----
E --3-----------------------0--


G -------------------------------------------------------------------------------
D -------------------------------------------------------------------------------
A --------------------------------------------------3--3--3--3--3--3----------10-
E --3--3--3--3--3--3--3--3--6--6--6--6--6--5--6--7--------------------0--3-------


G --------------------------------
D --------------------------------
A -10--8-10--8--------------------
E -------------10--9--8--6--3--3--


G -------------------------------------------------------------------------------
D -------------------------------------------------------------------------------
A --------------------------------------------------3--3--3--3--3--3-------------
E --3--3--3--3--3--3--3--3--5--5--5--5--5--5--5--5--------------------0--3-----3-


G ---------------------
D ---------------------
A ---------------------
E -3-33-3333--3/15\----


G -------------------------------------------------------------------------------
D --------------------------------------------------------2--2--3--3--4--4--5--5-
A --------------------------------------------------3--3-------------------------
E --3--3--3--3--3--3--3--3--6--6--6--6--6--5--6--7-------------------------------
                                                                             

G --7--7-12-12-12-12-12-12--------
D --------------------------------
A --------------------------------
E --------------------------------

Outro : repeat ad lib (different each time)

G -------------------------------------------------------------------------------
D --------5--------------------------5--------------5--3-------------------------
A -----------------------------------------------5--------5--4--3----------------
E --3--3-----3--3-----0--1--2--3--3-----3--3-----------------------6--3----------


Hope you'll enjoy it !!!
Comments