Lenny Kravitz - Lady Chords & Tabs

 

Lady Chords & Tabs

Lenny Kravitz Chords & Tabs

Version: 2 Type: Tab 0 ratings
1 star 2 stars 3 stars 4 stars 5 stars
comments

Lady Tab

You guys can figure out the rhythm, it's pretty easy

Verse:


e-------3------3----------1-----------0----------------------|
B-------3------3----------1-----------0----------------------|
G-------4------4----------2-----------1----------------------|
D-------5------5----------3-----------2----------------------|
A-------5------5----------3-----------2----------------------|
E-------3------3----------1-----------0----------------------|

Chorus:

e-------8------------7-----------7------------5--------------|
B-------8------------7-----------8------------5--------------|
G-------9------------8-----------9------------6--------------|
D------10------------9-----------9------------7--------------|
A------10------------9-----------7------------7--------------|
E-------8------------7------------------------5--------------|


Bridge:
the first chord meshes in with the same chord in the chorus
[ Tab from: http://www.guitartabs.cc/tabs/l/lenny_kravitz/lady_tab_ver_2.html ]
e-----7--------5---------8-------7---------------------------|
B-----8--------5---------9-------8---------------------------|
G-----9--------6---------9-------9---------------------------|
D-----9--------7--------10-------9---------------------------|
A-----7--------7--------10-------7---------------------------|
E--------------5---------8-----------------------------------|

solo:


e------------------------------------------------------------|
B-12-10------------------------------------------------------|
G-------12-9----------------------------------------------12-|
D------------12-9------------------------------------9-12----|
A-----------------12-10-------------------------5-10---------|
E-----------------------12-10-7-5-3-0---3-3---7--------------|


e--------------------------------------------------10-12-15--|
B-12-12-12-10----10-10------10-13---12-10----10-12-----------|
G-------------12---------12---------------12-----------------|
D------------------------------------------------------------|
A------------------------------------------------------------|
E------------------------------------------------------------|
Comments