Lenny Kravitz - Heaven Help Chords & Tabs

 

Heaven Help Chords & Tabs

Lenny Kravitz Chords & Tabs

Version: 1 Type: Tab 0 ratings
1 star 2 stars 3 stars 4 stars 5 stars
comments

Heaven Help Tab

   
Song: Heaven Help
Artist: Lenny Kravitz
Tabbed by: Vince B.

Standard Tuning

Intro (Bm7 - F#m7 - E - D)

e|---2----2----0----2---|
B|---3----2----0----3---|
G|---2----2----1----2---|
D|---4----2----2----0---|
A|---2----4----2--------|
E|--------2----0--------| 2x

Verse 1 (play this along with the piano)

e|---2--|--2--|--2--|--2--|--2--|--2--0--2---2---|
B|---3--|--2--|--3--|--2--|--3--|--2--0--3---3---|
G|---2--|--2--|--2--|--2--|--2--|--2--1--2---2---|
D|---4--|--2--|--4--|--2--|--4--|--2--2--0---0---|
A|---2--|--4--|--2--|--4--|--2--|--4--2----------|
E|------|--2--|-----|--2--|-----|--2--0----------| 
   There comes a time to be free of the heart
   I wanna be ready, ready to start
   On a love journey, got places to go
   Made up my mind and I have got to let you know


Riff 1

e|--------------------|
B|---------5----------|
G|---2h4/6---6p4-2----|
D|--------------------|
A|--------------------|
E|--------------------|

Chorus

     {   3x   }
e|--2-2-x--2--2-2-2--|--0-0-0-0-0---0-0-0-0---|
B|--3-3-x--2--2-2-2--|--3-3-3-3-3---2-2-2-2---|
G|--2-2-x--2--2-2-2--|--0-0-0-0-0---0-0-0-0---|
D|--4---4--2----2-2--|--0-0-0-0-0---2-2-2-2---|
A|--2---2--4----4-4--|--2-2---2-----0-0---0---|
E|---------2----2-2--|--0-0---0---------------|
     Heaven help the heart that lets me inside
     Heaven help the one that comes in my life

   {   2x   }
e|--2-2-x--2--2-2-2--|--0-0-0-0-0---2--2---|
B|--3-3-x--2--2-2-2--|--3-3-3-3-3---3--2---|
G|--2-2-x--2--2-2-2--|--0-0-0-0-0---2--2---|
D|--4---4--2----2-2--|--0-0-0-0-0---0--0---|
A|--2---2--4----4-4--|--2-2-2-2------------|
E|---------2----2-2--|--0-0---0------------|
     Heaven help the fool that walks through my door
     'Cause I decided right now
     I'm ready for love

(play Intro after Chorus)

Verse 2

e|---2-2---2--2-2-2---2-2-2-2-2-2-2---|
B|---3-3-x-3--3-3-3---2-2-2-2-2-2-2---|
G|---2-2-x-2--2-2-2---2-2-2-2-2-2-2---|
D|---4---4-4----4-4---2-2-2-2-2-2-2---|
A|---2---2-2----2-2---4-4---4-4---4---|
E|--------------------2-2-----2---2---|
      A funny feeling's coming over me
[ Tab from: http://www.guitartabs.cc/tabs/l/lenny_kravitz/heaven_help_tab.html ]
e|---2-2---2--2-2-2---2-2-2-2-2-2-2---|
B|---3-3-x-3--3-3-3---2-2-2-2-2-2-2---|
G|---2-2-x-2--2-2-2---2-2-2-2-2-2-2---|
D|---4---4-4----4-4---2-2-2-2-2-2-2---|
A|---2---2-2----2-2---4-4---4-4---4---|
E|--------------------2-2-----2---2---|
      Now I'm inspired and open to being

e|---2-2---2--2-2-2---2---0---2--2---2---|
B|---3-3-x-3--3-3-3---2---0---3--3---3---|
G|---2-2-x-2--2-2-2---2---1---2--2---2---|
D|---4---4-4----4-4---2---2---0--0---0---|
A|---2---2-2----2-2---4---2--------------|
E|--------------------2---0--------------|
      In a love place but it's out of my hands
      I'm telling you baby that you got to understand


Riff 2

e|-------------------|
B|-------------------|
G|---2/4-4b(5)--4\2--|
D|-------------------|
A|-------------------|
E|-------------------|

(Chorus)

Bridge
    
e|--2---2---2---4---4---4--|
B|--3---3---3---5---5---5--|
G|--2---2---2---4---4---4--|
D|--0---0---0---6---6---6--|
A|--------------4---4---4--|
E|-------------------------|
    I can't see what's out there for me

e|--4---4---4---2---2---2---|--0--0--2----2--|
B|--5---5---5---2---2---2---|--3--2--3----3--|
G|--4---4---4---2---2---2---|--0--0--2----2--|
D|--6---6---6---2---2---2---|--0--2--0----0--|
A|--4---4---4---4---4---4---|--2--0----------|
E|--------------2---2---2---|--0-------------|
    And I know love offers no guarantees
    I'll take a chance and I'm telling you something babe
    I got to let you know


(Chorus)

Lyrics 

Heaven Help

There comes a time to be free of the heart
I wanna be ready, ready to start
On a love journey, got places to go
Made up my mind and I have got to let you know

Heaven help the heart that lets me inside
Heaven help the one that comes in my life
Heaven help the fool that walks through my door
'Cause I decided right now
I'm ready for love

A funny feeling's coming over me
Now I'm inspired and open to being
In a love place but it's out of my hands
I'm telling you baby that you got to understand

Heaven help the heart that lets me inside
Heaven help the one who comes in my life
Heaven help the fool that walks through my door
'Cause I decided right now
I'm ready for love

I can't see what's out there for me
And I know love offers no guarantees
I'll take a chance and I'm telling you something babe
I got to let you know

Heaven help the heart that lets me inside
Heaven help the one that comes in my life
Heaven help the fool that walks through my door
'Cause I decided right now
I'm ready for love, ready for love
Take a chance, take the chance on love
Comments