Lenny Kravitz - Fly Away Chords & Tabs

 

Fly Away Chords & Tabs

Lenny Kravitz Chords & Tabs

Version: 8 Type: Tab 0 ratings
1 star 2 stars 3 stars 4 stars 5 stars
comments

Fly Away Tab

   
Lenny Kravitz
Fly away
Greatest Hits [2004] (Can't remember the name of the actual album it was on)
Tabbed by: gdrox91

____________________________________________________________________________

INTRO:
A   B C  G   D* x2

Lenny Does the intro in BARRÉ, which is why he can make the effects he does!

*= When you come to your 4th strum on the D chord, take your pingy and move to 8th fret, 
of 7th.
__________________________________________________________________________

VERSE:
(Normally the bass does this funky thing, but I always do it on the guitar!)

* S means 'Slide'

e------------------------------------------------------------------------|
B------------------------------------------------------------------------|
G------------------------------------------------------------------------|
D------7------------10----------5-------------12-------------------------|
A------------------------------------------------------------------------|
E--4s5----------7s8----------2s3----------9s10---------------------------|
____________________________________________________________________________

CHORUS:
(Same rules as INTRO!)
A   B C  G   D
____________________________________________________________________________
[ Tab from: http://www.guitartabs.cc/tabs/l/lenny_kravitz/fly_away_tab_ver_8.html ]
Solo:
In the solo the bass does the funky verse-thing and you play the solo.
This is my version of the guitar solo:

e---6-8-8bend-----6-8-8bend------6-8-8bend-8bend-6------------------------|
B-8--------------8-------------8-------------------8----x2----------------|
G-------------------------------------------------------------------------|
D-------------------------------------------------------------------------|
A-------------------------------------------------------------------------|
E-------------------------------------------------------------------------|

and then he does something I can't figure out what is, and then this thing, that you 
to do very fast so it sounds good..:

e----8-5-----8-5----------------------------------------------------------|
B--------5-------5--...---Do it VERY fast!--------------------------------|
G-------------------------------------------------------------------------|
D-------------------------------------------------------------------------|
A-------------------------------------------------------------------------|
E-------------------------------------------------------------------------|

____________________________________________________________________________

Okay, folks, that's all i could firgure 'bout the tabs.. Not sure about the solo, but 
tabs are more right, than the others on this site..
My mail is nicolaj_leth292@hotmail.com. If you have any questions, please mail me..

Hope you'd enjoy it, my fellow guitarists!
Comments