Lenny Kravitz - Flash Chords & Tabs

 

Flash Chords & Tabs

Lenny Kravitz Chords & Tabs

Version: 2 Type: Tab 0 ratings
1 star 2 stars 3 stars 4 stars 5 stars
comments

Flash Tab

---------9---------|         |--------------------------------------------|
-------9---12p9----|         |-----9h12p9---------------------------------|
---b11-------------|         |--11--------11--9--11p9-----911p9----------|
-------------------|         |-------------------------11--------11-911--|
-------------------|   X7    |--------------------------------------------|
-------------------|         |--------------------------------------------|
[ Tab from: http://www.guitartabs.cc/tabs/l/lenny_kravitz/flash_tab_ver_2.html ]
------------9----------------|----------9--------------------|
----------9---9---b12--b12---|--------9---9--b12--b12--------|
--9--b11---------------------|---b11-------------------------|
-----------------------------|-------------------------------|
-----------------------------|-------------------------------|
-----------------------------|-------------------------------|

---------9----b12r12---9----------12--14--b14r14p12--14-12--b14-----------|
-------9---9--------------12s14---------------------------------14--------|
--b11---------------------------------------------------------------------|
--------------------------------------------------------------------------|
--------------------------------------------------------------------------|
--------------------------------------------------------------------------|
Comments