Lenny Kravitz - Dig In Chords & Tabs

 

Dig In Chords & Tabs

Lenny Kravitz Chords & Tabs

Version: 6 Type: Tab 0 ratings
1 star 2 stars 3 stars 4 stars 5 stars
comments

Dig In Tab

   
#---------------------------------YOU BEST NOTE-------------------------------#
#This file is the author's own work and represents their interpretation of the#
#song. You may only use this file for private study, scholarship, or research.#
#-----------------------------------------------------------------------------#


Dig In Solo

Lenny Kravitz (Lenny)

Transcribed by Brian S.

Ohh  i thought it would take one minute to tab this out, but
it took a while... so appreciate it!

[ Tab from: http://www.guitartabs.cc/tabs/l/lenny_kravitz/dig_in_tab_ver_6.html ]
Solo :
   A
e--------------------------------------------------------------------|
b--10--10--10--10--10--10--10--10--9/10--10--10--10--10--10--10--10--|
g--9---9---9---9---9---9---9---9---8/9---9---9---9---9---9---9---9---|
d--------------------------------------------------------------------|
a--------------------------------------------------------------------|
e--------------------------------------------------------------------|
   C				   D
e---------------------------------------------------------------------|
b--13--13--13--13--13--13--13--13--15--15-15--13--15---15b16r15--13---|
g--12--12--12--12--12--12--12--12--14--14-14--14--14---14b15r14--14---|
d---------------------------------------------------------------------|
a---------------------------------------------------------------------|
e---------------------------------------------------------------------|
       A			           B
e---------------------------------------------------|
b--15-----------------------------------------------|
g--14--14--14--14-16--14---16b18--r16--14-----------|
d------14--14--14-14--14-------------------16vvv\7--|
a---------------------------------------------------|
e---------------------------------------------------|
		    D
e----------------------------------------------------------|
b-17b19vvr17p15--------------10vvvvv--13vvvvvv--15vvvvvv---|
g---------------16--14vvv\2--12bvvvv--15bvvvvv--17bvvvvv---|
d----------------------------------------------------------|
a----------------------------------------------------------|
e----------------------------------------------------------|
Comments