Lenny Kravitz - Dig In Chords & Tabs

 

Dig In Chords & Tabs

Lenny Kravitz Chords & Tabs

Version: 3 Type: Tab 0 ratings
1 star 2 stars 3 stars 4 stars 5 stars
comments

Dig In Tab

Lenny Kravitz
Dig In

Ok this song is so freaking easy that I picked up by ear with power chords. 
I know for a fact that this ISN'T right so don't try to correct me in the comments. 
The solo is accurate though, I even saw it in another version of this song, it's how 
I've been playing it and as far as I know, it's the correct way, but don't quote me on
that.


Intro

|-----------------------------------------------------|
|-----------------------------------------------------|
|-----------------------------------------------------|
|--5-5-5-5-5-5-5-5--7-7-7-7-7-7-7-7-------------------|
|--5-5-5-5-5-5-5-5--7-7-7-7-7-7-7-7-------------------|
|--3-3-3-3-3-3-3-3--5-5-5-5-5-5-5-5-------------------|

|-----------------------------------------------------|
|-----------------------------------------------------|
|-----------------------------------------------------|
|--8-8-8-8-8-8-8-8---8-8-8-8-8-8-8-8------------------|
|--8-8-8-8-8-8-8-8---8-8-8-8-8-8-8-8------------------|
|--6-6-6-6-6-6-6-6---6-6-6-6-6-6-6-6------------------|


Verse

|-----------------------------------------------------|
|-----------------------------------------------------|
|-----------------------------------------------------|
|--7--7--x-x-x--9--7--7--x-x-x--6--7--7---------------|
|--7--7--x-x-x--9--7--7--x-x-x--6--7--7---------------|
|--5--5--x-x-x--7--5--5--x-x-x--4--5--5---------------|

[ Tab from: http://www.guitartabs.cc/tabs/l/lenny_kravitz/dig_in_tab_ver_3.html ]
SOLO
|------------------------------------------------------|
|--10-10-10---8/10-10-10-10----10/13-13-13-13----------|
|--9--9--9----7-9--9--9--9------9/12-12-12-12----------|
|------------------------------------------------------|
|------------------------------------------------------|
|------------------------------------------------------|
                                       
|-----------------------------------------------------|
|--13/15-15--13--15--15^-p13--10--13--10--------------|
|--12/14-14--12--14--14^-p12---9--12---9--------------|
|-----------------------------------------------------|
|-----------------------------------------------------|
|-----------------------------------------------------|
                            
|--------------------------------12b14--r12p10-----------|
|-10--13--10---13b15--13--10-------------------12h14--10-|
|----------------------------11--------------------------|
|--------------------------------------------------------|
|--------------------------------------------------------|
|--------------------------------------------------------|

|-------------------------------------------------------|
|--10--\----13--\----15--\------------------------------|
|--9--\-----12--\----14--\------------------------------|
|-------------------------------------------------------|
|-------------------------------------------------------|
|-------------------------------------------------------|
Comments