Lenny Kravitz - Dig In Chords & Tabs

 

Dig In Chords & Tabs

Lenny Kravitz Chords & Tabs

Version: 1 Type: Tab 0 ratings
1 star 2 stars 3 stars 4 stars 5 stars
comments

Dig In Tab

   
#----------------------------------PLEASE NOTE--------------------------------#
#This file is the author's own work and represents their interpretation of the#
#song. You may only use this file for private study, scholarship, or research.#
#-----------------------------------------------------------------------------#

Lenny Kravitz
Dig In

Tabbed by Andres (la_laker83@hotmail.com)

***********************************************
Visit www.geocities.com/clubtabz for more tabs!
***********************************************


INTRO & CHORUS
   A5 B5 D5
E------------------------------------------------------------------------------
B------------------------------------------------------------------------------
G------------------------------------------------------------------------------
D--7--9--12--------------------------------------------------------------------
A--7--9--12--------------------------------------------------------------------
E--5--7--10--------------------------------------------------------------------


VERSE
   F#2              B5   F#5              B5
E------------------------------------------------------------------------------
B------------------------------------------------------------------------------
G---------x-x-x-x---4-----------x-x-x-x---4------------------------------------
D--4---4--x-x-x-x---4----4---4--x-x-x-x---4------------------------------------
A--4---4--x-x-x-x---2----4---4--x-x-x-x---2------------------------------------
E--2---2-----------------2---2-------------------------------------------------


PRE-CHORUS
   D   A   D   A    D   B7  E
E--5-------5--------5----------------------------------------------------------
B--7-------7--------7-------9--------------------------------------------------
G--7---6---7---6----7---8---9--------------------------------------------------
D--7---7---7---7----7---7---9--------------------------------------------------
A--5---7---5---7----5---9---7--------------------------------------------------
E------5-------5--------7------------------------------------------------------

[ Tab from: http://www.guitartabs.cc/tabs/l/lenny_kravitz/dig_in_tab.html ]
SOLO
   A5           B5                D5
E------------------------------------------------------------------------------
B--10-10-10---8/10-10-10-10----10/13-13-13-13----------------------------------
G--9--9--9----7-9--9--9--9------9/12-12-12-12----------------------------------
D------------------------------------------------------------------------------
A------------------------------------------------------------------------------
E------------------------------------------------------------------------------

                                       A5
E------------------------------------------------------------------------------
B--13/15-15--13--15--15^-p13--10--13--10---------------------------------------
G--12/14-14--12--14--14^-p12---9--12---9---------------------------------------
D------------------------------------------------------------------------------
A------------------------------------------------------------------------------
E------------------------------------------------------------------------------

                              B5                        D5
E---------------------------------12b14--r12p10--------------------------------
B--10--13--10---13b15--13--10--------------------12h14--10---------------------
G-----------------------------11-----------------------------------------------
D------------------------------------------------------------------------------
A------------------------------------------------------------------------------
E------------------------------------------------------------------------------


E------------------------------------------------------------------------------
B--10--\----13--\----15--\-----------------------------------------------------
G---9--\----12--\----14--\-----------------------------------------------------
D------------------------------------------------------------------------------
A------------------------------------------------------------------------------
E------------------------------------------------------------------------------


It's time to face it
Come on in and join the party
Life has been waiting for you to care

Don't try to fake it
Jump on in and get it started
There's so much loving for you to share

There is nowhere to run
There is nowhere to hide
Don't let it beat you
Say nice to meet you and bye

Chorus:
 Once you dig in
 You'll find it coming out the other side
 And once you dig in
 You'll find you'll have yourself a good time

Wake up and shake it
You didn't make your contribution
There ain't no time for you to spend

If you ain't part of the game
Then how can you find a solution
Nodoby said that it would be fair

When the mountain is high
Just look up to the sky
Ask God to teach you
Then persevere with the smile

Chorus



That's it, hope you enjoy it!
Comments