Lenny Kravitz - California Chords & Tabs

 

California Chords & Tabs

Lenny Kravitz Chords & Tabs

Version: 3 Type: Tab 0 ratings
1 star 2 stars 3 stars 4 stars 5 stars
comments

California Tab

Here is the solo of the song, not very hard to do.... 

-----------------------------------------------------------------------------|
-----------------------14-16-------------------------------------------------|
--9/16-16-16-16-----16-------16--16-16--16-14-16-14-13-11-----9-11bp9-11-9---|
----------------------------------------------------------11-----------------|
-----------------------------------------------------------------------------|
-----------------------------------------------------------------------------|
[ Tab from: http://www.guitartabs.cc/tabs/l/lenny_kravitz/california_tab_ver_3.html ]
-----------------------------------------------------------------------------|
-----------------------14-16-------------------------------------------------|
--9/16-16-16-16-----16-------16--16-16--16-14-16-14-13-11-----9-11bp9-11-9---|
----------------------------------------------------------11-----------------|
-----------------------------------------------------------------------------|
-----------------------------------------------------------------------------|
                 
-15p12----(7x)---15p14p12-15p14p12------------------------------------------|
------12----------------------------15p14p12-15p14p12------12-----12-----12-|
-------------------------------------------------------14b----14b----14b----|
----------------------------------------------------------------------------|
----------------------------------------------------------------------------|
----------------------------------------------------------------------------|

----------------12-15fb-15--12-15b-12---------------------------------------|
-----12------12-----------------------14-15-15b-15--12-14-12----------------|
-14b----14b--------------------------------------------------14-13h14-13-/0-|
----------------------------------------------------------------------------|
----------------------------------------------------------------------------|
----------------------------------------------------------------------------|

Tabbed by: Andre Murray e-mail to: davemurray_666@hotmail.com or post on my forum www.networldforum.tk
Comments