Lenny Kravitz - American Woman Chords & Tabs

 

American Woman Chords & Tabs

Lenny Kravitz Chords & Tabs

Version: 3 Type: Tab 0 ratings
1 star 2 stars 3 stars 4 stars 5 stars
comments

American Woman Tab

   
#----------------------------------PLEASE NOTE--------------------------------#
#This file is the author's own work and represents their interpretation of the#
#song. You may only use this file for private study, scholarship, or research.#
#-----------------------------------------------------------------------------#

Lenny Kravitz
American Woman

Tabbed by Andres (www.geocities.com/clubtabz)

This song and the solo are really cool!


INTRO
E-------------------------------------------------------------------
B-------------------------------------------------x-x-8-------x-----
G--5-5--5-5-5---5-5------------5-5--5-5-5---5-5---x-x-8h10p8--x-----
D--5-5--5-5-5---5-5------------5-5--5-5-5---5-5---------------------
A--3-3--3-3-3---3-3-------3-3--3-3--3-3-3---3-3---------------------
E---------------------3h6-------------------------------------------


VERSE (C5)
E------------------------------------------------------------------------
B------------------------------------------------------x-x-8-------x-----
G--5-5--5-5-5--5--5---x-x-----------5-5--5-5-5---5-5---x-x-8h10p8--x-----
D--5-5--5-5-5--5--5---x-x-----------5-5--5-5-5---5-5---------------------
A--3-3--3-3-3--3--3---x-x------3-3--3-3--3-3-3---3-3---------------------
E-------------------------3h6--------------------------------------------


INTERLUDE
E------------------------------------------
B------------------------------------------
G------------------------------------------
D------------------------------------------
A--1h3----1--3-----1h3----1--3-------3-----
E--------------------------------3h6-------


SOLO (First part over Verse riff, half step down. Then back to Verse in C5)
   B5
E------------------------------------------------------------------------------
B--10b12---12r10p8------------------7------------------------------------------
G------------------9--9b11r9p7---7----9b11r9p7---7-7\--------------------------
D------------------------------9---------------9-------------------------------
A------------------------------------------------------------------------------
E------------------------------------------------------------------------------
[ Tab from: http://www.guitartabs.cc/tabs/l/lenny_kravitz/american_woman_tab_ver_3.html ]
E------------------------------------------------------------------------------
B------------------------------------10----------------------------------------
G------------7-9--9b11rp7---7-9-9b11----11r9p7---7-----------------------------
D--------7-9--------------9--------------------9-------------------------------
A--5/7-9-----------------------------------------------------------------------
E------------------------------------------------------------------------------
                   C5
E------------------------------------------------------------------------------
B--10--10-10-10-10-10/11--11-11-11\10--10-10-10\8--8-8-8\----------------------
G------------------------------------------------------------------------------
D------------------------------------------------------------------------------
A------------------------------------------------------------------------------
E------------------------------------------------------------------------------

E--8--11b13---11-8h11p8----------------8------8------8------8------8------8----
B-----------------------11-8-11-11b13----11b13--11b13--11b13--11b13--11b13-----
G------------------------------------------------------------------------------
D------------------------------------------------------------------------------
A------------------------------------------------------------------------------
E------------------------------------------------------------------------------

E------------------------------------------------------------------------------
B--11b13-----------------------------------------------------------------------
G---------12-12-10h12p10-8----8-10b12-10b12r10p8----8-10-8---8\5-5-8p5---8\----
D--------------------------10--------------------10----------------------8\----
A------------------------------------------------------------------------------
E------------------------------------------------------------------------------


END RIFF
E--------------------------------------------------------------------
B--------------------------------------------------------------------
G-------x-x-x-x--------x-x-x--x-x-------x-x-x-x--------x-x-----------
D-------x-x-x-x--------x-x-x--x-x-------x-x-x-x--------x-x-----------
A--1h3--x-x-x-x--1--3--x-x-x--x-x--1h3--x-x-x-x--1--3--x-x-----3-----
E----------------------------------------------------------3h6-------
                                                                              

Hope you enjoy it!
Mail me to la_laker83@hotmail.com
Comments