Lenny Kravitz - Again Chords & Tabs

 

Again Chords & Tabs

Lenny Kravitz Chords & Tabs

Version: 5 Type: Tab 0 ratings
1 star 2 stars 3 stars 4 stars 5 stars
comments

Again Tab

Tabbed by Julian Loor
1972 Plymouth Fury III

E |---------------------------------------|
B |---------------------------------------| 
G |-------------16b18hold-16b18-16b18-16~-| 
D |-12/14-14-14---------------------------| 
A |---------------------------------------| 
E |---------------------------------------|

E |--------------------------------------------------|
B |----17b19hold-17-15-14-15-17----------------------| 
G |-14--------------------------16b18-14-16-14-------| 
D |--------------------------------------------16-14-| 
A |--------------------------------------------------| 
E |--------------------------------------------------|
[ Tab from: http://www.guitartabs.cc/tabs/l/lenny_kravitz/again_tab_ver_5.html ]
E |------------------------------------17b19-17~-|
B |----------------14-15-17~-17b19-17~-----------| 
G |----14-13-14-16-------------------------------| 
D |-14-------------------------------------------| 
A |----------------------------------------------| 
E |----------------------------------------------| 

E |-19b21-19b21-19b21-17-19-17~-| 
B |-----------------------------| 
G |-----------------------------| 
D |-----------------------------| 
A |-----------------------------| 
E |-----------------------------| 

E |-21-22-19b21-19b21-17-19-17-------| 
B |----------------------------------| 
G |----------------------------------| 
D |----------------------------7tr9\-| 
A |----------------------------------| 
E |----------------------------------|
Comments