Lenny Kravitz - Again Chords & Tabs


Again Chords & Tabs

Lenny Kravitz Chords & Tabs

Version: 1 Type: Tab 0 ratings
1 star 2 stars 3 stars 4 stars 5 stars

Again Tab

Name: matthew long

Tabs: Lenny Kravitz- Again
tabbed by Matthew long

E |-------------------------|-----------------------------|
B |---------------5---------|---------------10--10h12p10--|
G |---------------6h7p6-----|--------11---------11--------|
D |------7----6---------7---|----11------11---------------|
A |---7----7----------------|-9---------------------------|
E |5------------------------|-----------------------------|
E |---------------------------|---------------------5-----|
B |--------------9------------|--------------7------7-----|
G |-------9------9h11p9-------|-------7------7h9p7--7-----|
D |----9-----9---9------------|----7-----7---7------7-----|
A |-7-------------------7-----|-5-------------------5-----|
E |---------------------------|---------------------------|
This is what played during the intro and chorus, this design of how 
it's arpeggiated is
 kinda sketchy but the progression is dead on. 
But i know he's using open chords cause i can hear how the high strings 

Verse: D5,E5,F#5
^=quick upstroke
E |----------------------|
B |-------------11--11---| 
G |-7~~-----9---11--11---| 
D |-7~~-----9---11--11---| 
A |-5~~-----7---9---^----| 
E |----------------------|

Verse 1:
D5                   E5  F#5
I've been searching for you
D5                    E5  F#5
I heard a cry within my soul
   D5                              E5   F#5
I never had a yearning quite like this before
                   D5             E5	     F#5	
Now that you are walking right through my door
[ Tab from: http://www.guitartabs.cc/tabs/l/lenny_kravitz/again_tab.html ]
All of my life
Where have you been
E            D
I wonder if I'll ever see you again
And if that day comes
I know we could win
E            D
I wonder if I'll ever see you again

(played like first verse)
A sacred gift of heaven
For better worse wherever
And I would never let somebody break you down
Or take your crown, never


(sang kinda spoken like, only drums play)
I've searched through time, I've always known
That you where there, upon your throne
A lonely queen, without her king
I've longer for you, my love forever

Solo based on the A major scale

E |-------------------------12b14r12-10-9-10-9------------| 
B |----12b14-14-14r12~~--10--------------------12-10tr12--| 
G |-9-----------------------------------------------------| 
D |-------------------------------------------------------| 
A |-------------------------------------------------------| 
E |-------------------------------------------------------| 

E |---------9-10-12-14p12--17b19r17--19b21-21-21r19-17----|
B |-9-10-12-----------------------------------------------| 
G |-------------------------------------------------------| 
D |-------------------------------------------------------| 
A |-------------------------------------------------------| 
E |-------------------------------------------------------| 

E |-21-22-21h22p21-17---------| 
B |---------------------------| 
G |---------------------------| 
D |---------------------7tr9\-| 
A |---------------------------| 
E |---------------------------| 

Chorus all the way out with variations.

any questions? email me at matt@guitartricks.com
visit guitartricks.com and guitarwar.com please